  0
SECTION
  2
HEADER
  9
$ACADVER
  1
AC1002
  9
$INSBASE
 10
0.0
 20
0.0
  9
$EXTMIN
 10
-131.1236
 20
-90.00001
  9
$EXTMAX
 10
131.1236
 20
90.00001
  9
$LIMMIN
 10
0.0
 20
0.0
  9
$LIMMAX
 10
12.0
 20
9.0
  9
$VIEWCTR
 10
10.11492432
 20
0.0
  9
$VIEWSIZE
 40
180.00002
  9
$SNAPMODE
 70
     0
  9
$SNAPUNIT
 10
1.0
 20
1.0
  9
$SNAPBASE
 10
0.0
 20
0.0
  9
$SNAPANG
 50
0.0
  9
$SNAPSTYLE
 70
     0
  9
$SNAPISOPAIR
 70
     0
  9
$GRIDMODE
 70
     0
  9
$GRIDUNIT
 10
0.0
 20
0.0
  9
$ORTHOMODE
 70
     0
  9
$REGENMODE
 70
     1
  9
$FILLMODE
 70
     1
  9
$QTEXTMODE
 70
     0
  9
$DRAGMODE
 70
     2
  9
$LTSCALE
 40
1.0
  9
$OSMODE
 70
     0
  9
$ATTMODE
 70
     1
  9
$TEXTSIZE
 40
0.2
  9
$TRACEWID
 40
0.05
  9
$TEXTSTYLE
  7
AAA
  9
$CLAYER
  8
0
  9
$CELTYPE
  6
BYLAYER
  9
$CECOLOR
 62
   256
  9
$DIMSCALE
 40
1.0
  9
$DIMASZ
 40
0.18
  9
$DIMEXO
 40
0.0625
  9
$DIMDLI
 40
0.38
  9
$DIMRND
 40
0.0
  9
$DIMDLE
 40
0.0
  9
$DIMEXE
 40
0.18
  9
$DIMTP
 40
0.0
  9
$DIMTM
 40
0.0
  9
$DIMTXT
 40
0.18
  9
$DIMCEN
 40
0.09
  9
$DIMTSZ
 40
0.0
  9
$DIMTOL
 70
     0
  9
$DIMLIM
 70
     0
  9
$DIMTIH
 70
     1
  9
$DIMTOH
 70
     1
  9
$DIMSE1
 70
     0
  9
$DIMSE2
 70
     0
  9
$DIMTAD
 70
     0
  9
$DIMZIN
 70
     0
  9
$DIMBLK
  1

  9
$LUNITS
 70
     2
  9
$LUPREC
 70
     4
  9
$AXISMODE
 70
     0
  9
$AXISUNIT
 10
0.0
 20
0.0
  9
$SKETCHINC
 40
0.1
  9
$FILLETRAD
 40
0.0
  9
$AUNITS
 70
     0
  9
$AUPREC
 70
     0
  9
$MENU
  1
ACAD
  9
$ELEVATION
 40
0.0
  9
$THICKNESS
 40
0.0
  9
$VIEWDIR
 10
0.0
 20
0.0
 30
1.0
  9
$LIMCHECK
 70
     0
  9
$BLIPMODE
 70
     1
  9
$CHAMFERA
 40
0.0
  9
$CHAMFERB
 40
0.0
  9
$FASTZOOM
 70
     1
  9
$SKPOLY
 70
     0
  9
$TDCREATE
 40
2447867.5064583828
  9
$TDUPDATE
 40
2447867.5064583828
  9
$TDINDWG
 40
0.0039699074
  9
$TDUSRTIMER
 40
0.0039699074
  9
$USRTIMER
 70
     1
  9
$ANGBASE
 50
0.0
  9
$ANGDIR
 70
     0
  9
$PDMODE
 70
     0
  9
$PDSIZE
 40
0.0
  9
$PLINEWID
 40
0.0
  9
$COORDS
 70
     0
  9
$USERI1
 70
     0
  9
$USERI2
 70
     0
  9
$USERI3
 70
     0
  9
$USERI4
 70
     0
  9
$USERI5
 70
     0
  9
$USERR1
 40
0.0
  9
$USERR2
 40
0.0
  9
$USERR3
 40
0.0
  9
$USERR4
 40
0.0
  9
$USERR5
 40
0.0
  0
ENDSEC
  0
SECTION
  2
TABLES
  0
TABLE
  2
LTYPE
 70
     3
  0
LTYPE
  2
CONTINUOUS
 70
    64
  3
SOLID
 72
    65
 73
     0
 40
0.0
  0
LTYPE
  2
CENTER
 70
    64
  3
CENTER
 72
    65
 73
     4
 40
2.0
 49
1.25
 49
-0.25
 49
0.25
 49
-0.25
  0
LTYPE
  2
PHANTOM
 70
    64
  3
PHANTOM
 72
    65
 73
     6
 40
2.5
 49
1.25
 49
-0.25
 49
0.25
 49
-0.25
 49
0.25
 49
-0.25
  0
ENDTAB
  0
TABLE
  2
LAYER
 70
     1
  0
LAYER
  2
0
 70
    64
 62
     7
  6
CONTINUOUS
  0
ENDTAB
  0
TABLE
  2
STYLE
 70
     2
  0
STYLE
  2
AAA
 70
     0
 40
0.0
 41
1.0
 50
0.0
 71
     0
 42
0.2
  3
TXT
  4

  0
STYLE
  2
STANDARD
 70
    64
 40
0.0
 41
1.0
 50
0.0
 71
     0
 42
0.2
  3
TXT
  4
BIGFONT
  0
ENDTAB
  0
TABLE
  2
VIEW
 70
     0
  0
ENDTAB
  0
ENDSEC
  0
SECTION
  2
BLOCKS
  0
ENDSEC
  0
SECTION
  2
ENTITIES
  0
POINT
  8
0
  6
CONTINUOUS
 62
     7
 10
-29.32568
 20
3.83333
  0
POINT
  8
0
  6
CONTINUOUS
 62
     7
 10
-22.82568
 20
3.83333
  0
POINT
  8
0
  6
CONTINUOUS
 62
     7
 10
42.1743
 20
3.83333
  0
POINT
  8
0
  6
CONTINUOUS
 62
     7
 10
45.1743
 20
3.83333
  0
LINE
  8
0
  6
CONTINUOUS
 62
     7
 10
-131.1236
 20
-90.00001
 11
-131.1236
 21
90.00001
  0
LINE
  8
0
  6
CONTINUOUS
 62
     7
 10
131.1236
 20
90.00001
 11
131.1236
 21
-90.00001
  0
LINE
  8
0
  6
CONTINUOUS
 62
     7
 10
-131.1236
 20
-90.00001
 11
131.1236
 21
-90.00001
  0
LINE
  8
0
  6
CONTINUOUS
 62
     7
 10
-131.1236
 20
90.00001
 11
131.1236
 21
90.00001
  0
LINE
  8
0
  6
CONTINUOUS
 62
     7
 10
-131.1236
 20
79.88764
 11
-77.19102
 21
79.88764
  0
LINE
  8
0
  6
CONTINUOUS
 62
     7
 10
-77.19102
 20
79.88764
 11
-77.19102
 21
90.00001
  0
LINE
  8
0
  6
CONTINUOUS
 62
     7
 10
77.19101
 20
-79.88764
 11
131.1236
 21
-79.88764
  0
LINE
  8
0
  6
CONTINUOUS
 62
     7
 10
91.35169
 20
-82.31916
 11
96.53259
 21
-82.31916
  0
LINE
  8
0
  6
CONTINUOUS
 62
     7
 10
91.35169
 20
-86.91354
 11
95.75056
 21
-86.91354
  0
LINE
  8
0
  6
CONTINUOUS
 62
     7
 10
91.35169
 20
-88.08657
 11
97.31461
 21
-88.08657
  0
LINE
  8
0
  6
CONTINUOUS
 62
     7
 10
91.35169
 20
-83.49218
 11
95.75056
 21
-83.49218
  0
LINE
  8
0
  6
CONTINUOUS
 62
     7
 10
91.35169
 20
-82.31916
 11
91.35169
 21
-83.49218
  0
LINE
  8
0
  6
CONTINUOUS
 62
     7
 10
97.31461
 20
-83.10118
 11
97.31461
 21
-88.08657
  0
LINE
  8
0
  6
CONTINUOUS
 62
     7
 10
95.75056
 20
-83.49218
 11
95.75056
 21
-86.91354
  0
LINE
  8
0
  6
CONTINUOUS
 62
     7
 10
98.19438
 20
-82.31916
 11
98.19438
 21
-83.49218
  0
LINE
  8
0
  6
CONTINUOUS
 62
     7
 10
103.7663
 20
-83.49218
 11
103.7663
 21
-87.30457
  0
LINE
  8
0
  6
CONTINUOUS
 62
     7
 10
102.2023
 20
-83.49218
 11
102.2023
 21
-86.91354
  0
LINE
  8
0
  6
CONTINUOUS
 62
     7
 10
91.35169
 20
-86.91354
 11
91.35169
 21
-88.08657
  0
LINE
  8
0
  6
CONTINUOUS
 62
     7
 10
98.19438
 20
-82.31916
 11
99.73978
 21
-82.31916
  0
LINE
  8
0
  6
CONTINUOUS
 62
     7
 10
98.19438
 20
-88.08657
 11
99.4088
 21
-88.08657
  0
LINE
  8
0
  6
CONTINUOUS
 62
     7
 10
98.19463
 20
-88.08676
 11
99.4257
 21
-83.49239
  0
LINE
  8
0
  6
CONTINUOUS
 62
     7
 10
98.19438
 20
-83.49218
 11
99.42545
 21
-83.49218
  0
LINE
  8
0
  6
CONTINUOUS
 62
     7
 10
99.40903
 20
-88.08674
 11
100.6401
 21
-83.49235
  0
LINE
  8
0
  6
CONTINUOUS
 62
     7
 10
101.0292
 20
-86.91354
 11
102.2023
 21
-86.91354
  0
LINE
  8
0
  6
CONTINUOUS
 62
     7
 10
101.0291
 20
-86.91348
 11
101.3434
 21
-88.08647
  0
LINE
  8
0
  6
CONTINUOUS
 62
     7
 10
101.3435
 20
-88.08657
 11
102.9843
 21
-88.08657
  0
LINE
  8
0
  6
CONTINUOUS
 62
     7
 10
100.6399
 20
-83.49218
 11
102.2023
 21
-83.49218
  0
LINE
  8
0
  6
CONTINUOUS
 62
     7
 10
100.9542
 20
-82.31916
 11
102.5933
 21
-82.31916
  0
LINE
  8
0
  6
CONTINUOUS
 62
     7
 10
99.73981
 20
-82.31919
 11
99.97292
 21
-81.44921
  0
LINE
  8
0
  6
CONTINUOUS
 62
     7
 10
100.9542
 20
-82.31916
 11
101.1873
 21
-81.44919
  0
LINE
  8
0
  6
CONTINUOUS
 62
     7
 10
104.7438
 20
-82.31916
 11
106.6011
 21
-82.31916
  0
LINE
  8
0
  6
CONTINUOUS
 62
     7
 10
104.7438
 20
-83.49218
 11
109.3053
 21
-83.49218
  0
LINE
  8
0
  6
CONTINUOUS
 62
     7
 10
106.6011
 20
-88.08657
 11
108.1652
 21
-88.08657
  0
LINE
  8
0
  6
CONTINUOUS
 62
     7
 10
104.7438
 20
-82.31916
 11
104.7438
 21
-83.49218
  0
LINE
  8
0
  6
CONTINUOUS
 62
     7
 10
110.5112
 20
-85.61926
 11
110.5112
 21
-86.91354
  0
LINE
  8
0
  6
CONTINUOUS
 62
     7
 10
104.7437
 20
-86.91345
 11
106.601
 21
-86.04738
  0
LINE
  8
0
  6
CONTINUOUS
 62
     7
 10
104.7438
 20
-85.61927
 11
109.3053
 21
-83.4922
  0
LINE
  8
0
  6
CONTINUOUS
 62
     7
 10
104.7438
 20
-85.61926
 11
104.7438
 21
-86.91354
  0
LINE
  8
0
  6
CONTINUOUS
 62
     7
 10
108.1652
 20
-85.81956
 11
110.5112
 21
-86.91356
  0
LINE
  8
0
  6
CONTINUOUS
 62
     7
 10
109.0154
 20
-84.92177
 11
110.5113
 21
-85.61932
  0
LINE
  8
0
  6
CONTINUOUS
 62
     7
 10
110.5112
 20
-83.10118
 11
110.5112
 21
-83.72594
  0
LINE
  8
0
  6
CONTINUOUS
 62
     7
 10
106.6011
 20
-81.44916
 11
106.6011
 21
-82.31916
  0
LINE
  8
0
  6
CONTINUOUS
 62
     7
 10
108.1652
 20
-81.44916
 11
108.1652
 21
-82.31916
  0
LINE
  8
0
  6
CONTINUOUS
 62
     7
 10
108.1652
 20
-82.31916
 11
109.7292
 21
-82.31916
  0
LINE
  8
0
  6
CONTINUOUS
 62
     7
 10
106.6011
 20
-86.04747
 11
106.6011
 21
-88.08657
  0
LINE
  8
0
  6
CONTINUOUS
 62
     7
 10
108.1652
 20
-85.81956
 11
108.1652
 21
-88.08657
  0
LINE
  8
0
  6
CONTINUOUS
 62
     7
 10
109.0153
 20
-84.92168
 11
110.0597
 21
-84.43469
  0
LINE
  8
0
  6
CONTINUOUS
 62
     7
 10
115.7899
 20
-81.80107
 11
116.9629
 21
-81.80107
  0
LINE
  8
0
  6
CONTINUOUS
 62
     7
 10
111.0
 20
-84.22416
 11
111.0
 21
-85.48656
  0
LINE
  8
0
  6
CONTINUOUS
 62
     7
 10
116.9629
 20
-81.80107
 11
116.9629
 21
-82.31916
  0
LINE
  8
0
  6
CONTINUOUS
 62
     7
 10
115.7899
 20
-81.80107
 11
115.7899
 21
-82.05386
  0
LINE
  8
0
  6
CONTINUOUS
 62
     7
 10
114.2258
 20
-84.20361
 11
114.2258
 21
-88.08657
  0
LINE
  8
0
  6
CONTINUOUS
 62
     7
 10
111.0001
 20
-84.22427
 11
115.5435
 21
-82.41731
  0
LINE
  8
0
  6
CONTINUOUS
 62
     7
 10
111.0
 20
-85.48662
 11
114.2259
 21
-84.20366
  0
LINE
  8
0
  6
CONTINUOUS
 62
     7
 10
114.2258
 20
-88.08657
 11
115.7899
 21
-88.08657
  0
LINE
  8
0
  6
CONTINUOUS
 62
     7
 10
115.7899
 20
-83.58156
 11
115.7899
 21
-88.08657
  0
LINE
  8
0
  6
CONTINUOUS
 62
     7
 10
115.79
 20
-83.58161
 11
116.2235
 21
-83.40919
  0
LINE
  8
0
  6
CONTINUOUS
 62
     7
 10
99.87858
 20
-81.44916
 11
101.1873
 21
-81.44916
  0
LINE
  8
0
  6
CONTINUOUS
 62
     7
 10
103.1309
 20
-81.44916
 11
103.6294
 21
-81.44916
  0
LINE
  8
0
  6
CONTINUOUS
 62
     7
 10
106.6011
 20
-81.44916
 11
108.1652
 21
-81.44916
  0
LINE
  8
0
  6
CONTINUOUS
 62
     7
 10
103.1309
 20
-82.23119
 11
103.6294
 21
-82.23119
  0
LINE
  8
0
  6
CONTINUOUS
 62
     7
 10
103.1309
 20
-81.44916
 11
103.1309
 21
-82.23119
  0
LINE
  8
0
  6
CONTINUOUS
 62
     7
 10
103.6294
 20
-81.44916
 11
103.6294
 21
-82.23119
  0
LINE
  8
0
  6
CONTINUOUS
 62
     7
 10
103.9227
 20
-81.44916
 11
103.9227
 21
-82.23119
  0
LINE
  8
0
  6
CONTINUOUS
 62
     7
 10
104.4799
 20
-81.44916
 11
104.4799
 21
-82.23119
  0
LINE
  8
0
  6
CONTINUOUS
 62
     7
 10
103.9227
 20
-81.44916
 11
104.4799
 21
-81.44916
  0
LINE
  8
0
  6
CONTINUOUS
 62
     7
 10
103.9227
 20
-82.23119
 11
104.4799
 21
-82.23119
  0
LINE
  8
0
  6
CONTINUOUS
 62
     7
 10
77.19101
 20
79.88764
 11
131.1236
 21
79.88764
  0
LINE
  8
0
  6
CONTINUOUS
 62
     7
 10
77.19101
 20
90.00001
 11
77.19101
 21
79.88764
  0
LINE
  8
0
  6
CONTINUOUS
 62
     7
 10
77.19101
 20
-79.88764
 11
77.19101
 21
-90.00001
  0
LINE
  8
0
  6
PHANTOM
 62
     2
 10
-53.32567
 20
-9.66668
 11
-29.32568
 21
-9.66668
  0
LINE
  8
0
  6
CENTER
 62
     2
 10
-41.32567
 20
38.33333
 11
-41.32567
 21
-42.83062
  0
LINE
  8
0
  6
PHANTOM
 62
     2
 10
-52.82567
 20
-39.16667
 11
-29.82568
 21
-39.16667
  0
LINE
  8
0
  6
PHANTOM
 62
     2
 10
-53.32567
 20
-31.66667
 11
-29.32568
 21
-31.66667
  0
LINE
  8
0
  6
PHANTOM
 62
     2
 10
-53.32567
 20
33.53333
 11
-53.32567
 21
-38.66667
  0
LINE
  8
0
  6
PHANTOM
 62
     2
 10
-29.32568
 20
33.53333
 11
-29.32568
 21
-38.66667
  0
LINE
  8
0
  6
PHANTOM
 62
     2
 10
-53.32567
 20
32.53333
 11
-29.32568
 21
32.53333
  0
LINE
  8
0
  6
PHANTOM
 62
     2
 10
-53.32567
 20
7.33333
 11
-29.32568
 21
7.33333
  0
LINE
  8
0
  6
PHANTOM
 62
     2
 10
-52.32567
 20
35.53333
 11
-30.32571
 21
35.53333
  0
LINE
  8
0
  6
PHANTOM
 62
     2
 10
-53.32567
 20
33.53333
 11
-29.32568
 21
33.53333
  0
LINE
  8
0
  6
PHANTOM
 62
     2
 10
-53.32564
 20
33.53332
 11
-52.32564
 21
35.53332
  0
LINE
  8
0
  6
PHANTOM
 62
     2
 10
-29.3257
 20
33.53333
 11
-30.3257
 21
35.53333
  0
LINE
  8
0
  6
CENTER
 62
     2
 10
-4.32568
 20
25.33332
 11
-32.32568
 21
25.33332
  0
LINE
  8
0
  6
PHANTOM
 62
     2
 10
-17.32568
 20
26.18332
 11
-21.32146
 21
26.18332
  0
LINE
  8
0
  6
PHANTOM
 62
     2
 10
-17.32568
 20
24.48333
 11
-21.77698
 21
24.48333
  0
LINE
  8
0
  6
PHANTOM
 62
     2
 10
-7.32568
 20
25.65332
 11
-17.32568
 21
25.65332
  0
LINE
  8
0
  6
PHANTOM
 62
     2
 10
-7.32568
 20
25.01332
 11
-17.32568
 21
25.01332
  0
LINE
  8
0
  6
PHANTOM
 62
     2
 10
-17.32568
 20
24.48333
 11
-17.32568
 21
26.18332
  0
LINE
  8
0
  6
PHANTOM
 62
     2
 10
-7.32568
 20
25.01332
 11
-7.32568
 21
25.65332
  0
LINE
  8
0
  6
PHANTOM
 62
     2
 10
-20.78561
 20
28.18333
 11
-22.31292
 21
22.48333
  0
LINE
  8
0
  6
PHANTOM
 62
     2
 10
-22.3385
 20
28.18333
 11
-23.86581
 21
22.48334
  0
LINE
  8
0
  6
PHANTOM
 62
     2
 10
-22.87438
 20
26.18332
 11
-27.32568
 21
26.18332
  0
LINE
  8
0
  6
PHANTOM
 62
     2
 10
-23.3299
 20
24.48333
 11
-27.32568
 21
24.48333
  0
LINE
  8
0
  6
PHANTOM
 62
     2
 10
-27.82568
 20
27.03332
 11
-29.32568
 21
27.03332
  0
LINE
  8
0
  6
PHANTOM
 62
     2
 10
-27.32568
 20
24.13333
 11
-27.32568
 21
26.53332
  0
LINE
  8
0
  6
PHANTOM
 62
     2
 10
-27.82568
 20
23.63333
 11
-29.32568
 21
23.63333
  0
LINE
  8
0
  6
PHANTOM
 62
     2
 10
34.6743
 20
-9.66667
 11
49.6743
 21
-9.66667
  0
LINE
  8
0
  6
CENTER
 62
     2
 10
42.1743
 20
38.23309
 11
42.1743
 21
-42.31804
  0
LINE
  8
0
  6
PHANTOM
 62
     2
 10
35.1743
 20
-39.16666
 11
49.1743
 21
-39.16666
  0
LINE
  8
0
  6
PHANTOM
 62
     2
 10
34.6743
 20
-31.66666
 11
49.6743
 21
-31.66666
  0
LINE
  8
0
  6
PHANTOM
 62
     2
 10
34.6743
 20
33.53332
 11
34.6743
 21
-38.66666
  0
LINE
  8
0
  6
PHANTOM
 62
     2
 10
49.6743
 20
33.53332
 11
49.6743
 21
-38.66666
  0
LINE
  8
0
  6
PHANTOM
 62
     2
 10
34.6743
 20
32.53334
 11
49.6743
 21
32.53334
  0
LINE
  8
0
  6
PHANTOM
 62
     2
 10
34.6743
 20
7.33333
 11
49.6743
 21
7.33333
  0
LINE
  8
0
  6
PHANTOM
 62
     2
 10
34.6743
 20
33.53332
 11
49.6743
 21
33.53332
  0
LINE
  8
0
  6
PHANTOM
 62
     2
 10
49.67424
 20
33.5333
 11
48.67424
 21
35.5333
  0
LINE
  8
0
  6
PHANTOM
 62
     2
 10
34.67429
 20
33.53333
 11
35.67429
 21
35.53334
  0
LINE
  8
0
  6
PHANTOM
 62
     2
 10
35.67429
 20
35.53334
 11
48.6743
 21
35.53334
  0
LINE
  8
0
  6
CENTER
 62
     2
 10
40.87429
 20
28.33333
 11
40.87429
 21
22.33333
  0
LINE
  8
0
  6
CENTER
 62
     2
 10
43.4743
 20
28.33333
 11
43.4743
 21
22.33333
  0
LINE
  8
0
  6
CENTER
 62
     2
 10
38.1743
 20
25.33333
 11
46.1743
 21
25.33333
  0
LINE
  8
0
  6
PHANTOM
 62
     2
 10
40.87429
 20
27.03334
 11
43.4743
 21
27.03334
  0
LINE
  8
0
  6
PHANTOM
 62
     2
 10
40.87429
 20
23.63333
 11
43.4743
 21
23.63333
  0
LINE
  8
0
  6
CENTER
 62
     2
 10
-20.74973
 20
3.83333
 11
-34.822
 21
3.83333
  0
LINE
  8
0
  6
CONTINUOUS
 62
     7
 10
-22.82568
 20
6.23332
 11
-22.82568
 21
4.33333
  0
LINE
  8
0
  6
CONTINUOUS
 62
     7
 10
-27.82568
 20
6.23332
 11
-27.82568
 21
1.43333
  0
LINE
  8
0
  6
CONTINUOUS
 62
     7
 10
-23.42569
 20
6.83333
 11
-27.22566
 21
6.83333
  0
LINE
  8
0
  6
CONTINUOUS
 62
     7
 10
-23.42569
 20
0.83333
 11
-27.22568
 21
0.83333
  0
LINE
  8
0
  6
CONTINUOUS
 62
     7
 10
-22.82565
 20
6.23336
 11
-23.42566
 21
6.83337
  0
LINE
  8
0
  6
CONTINUOUS
 62
     7
 10
-22.82559
 20
1.43326
 11
-23.4256
 21
0.83325
  0
LINE
  8
0
  6
CONTINUOUS
 62
     7
 10
-27.22563
 20
0.83336
 11
-27.82564
 21
1.43337
  0
LINE
  8
0
  6
CONTINUOUS
 62
     7
 10
-27.82561
 20
6.23324
 11
-27.22559
 21
6.83324
  0
LINE
  8
0
  6
CONTINUOUS
 62
     7
 10
-23.42569
 20
6.83333
 11
-23.42569
 21
4.33333
  0
LINE
  8
0
  6
CONTINUOUS
 62
     7
 10
-27.22568
 20
6.83333
 11
-27.22568
 21
0.83333
  0
LINE
  8
0
  6
CONTINUOUS
 62
     7
 10
-27.82568
 20
5.43333
 11
-29.32568
 21
5.43333
  0
LINE
  8
0
  6
CONTINUOUS
 62
     7
 10
-27.82568
 20
2.23332
 11
-29.32568
 21
2.23332
  0
LINE
  8
0
  6
CONTINUOUS
 62
     7
 10
-22.82568
 20
3.33333
 11
-23.82568
 21
3.33333
  0
LINE
  8
0
  6
CONTINUOUS
 62
     7
 10
-22.82568
 20
4.33333
 11
-23.82568
 21
4.33333
  0
LINE
  8
0
  6
CONTINUOUS
 62
     7
 10
-23.82568
 20
4.33333
 11
-23.82568
 21
3.33333
  0
LINE
  8
0
  6
CONTINUOUS
 62
     7
 10
-22.82568
 20
3.33333
 11
-22.82568
 21
1.43333
  0
LINE
  8
0
  6
CONTINUOUS
 62
     7
 10
-23.42569
 20
3.33333
 11
-23.42569
 21
0.83333
  0
LINE
  8
0
  6
CONTINUOUS
 62
     7
 10
-23.42567
 20
2.08331
 11
-27.22566
 21
4.27724
  0
LINE
  8
0
  6
CONTINUOUS
 62
     7
 10
-23.4257
 20
0.92864
 11
-27.22569
 21
3.12256
  0
LINE
  8
0
  6
CONTINUOUS
 62
     7
 10
-23.82567
 20
3.46894
 11
-27.22568
 21
5.43194
  0
LINE
  8
0
  6
CONTINUOUS
 62
     7
 10
-23.42567
 20
4.39273
 11
-27.22566
 21
6.58666
  0
LINE
  8
0
  6
CONTINUOUS
 62
     7
 10
-25.26064
 20
0.83332
 11
-27.22569
 21
1.96784
  0
LINE
  8
0
  6
CONTINUOUS
 62
     7
 10
-23.42568
 20
5.54745
 11
-25.6529
 21
6.83334
  0
LINE
  8
0
  6
CONTINUOUS
 62
     7
 10
-25.26062
 20
6.83333
 11
-27.22569
 21
5.6988
  0
LINE
  8
0
  6
CONTINUOUS
 62
     7
 10
-23.42572
 20
6.73803
 11
-27.2257
 21
4.54411
  0
LINE
  8
0
  6
CONTINUOUS
 62
     7
 10
-23.4257
 20
5.58334
 11
-27.22568
 21
3.38943
  0
LINE
  8
0
  6
CONTINUOUS
 62
     7
 10
-23.82567
 20
4.19768
 11
-27.22568
 21
2.23468
  0
LINE
  8
0
  6
CONTINUOUS
 62
     7
 10
-23.42571
 20
3.27396
 11
-27.2257
 21
1.08004
  0
LINE
  8
0
  6
CONTINUOUS
 62
     7
 10
-23.42567
 20
2.11918
 11
-25.65292
 21
0.83329
  0
LINE
  8
0
  6
CONTINUOUS
 62
     7
 10
39.23491
 20
4.43332
 11
45.11369
 21
4.43332
  0
LINE
  8
0
  6
CONTINUOUS
 62
     7
 10
39.23491
 20
3.23333
 11
45.11369
 21
3.23333
  0
LINE
  8
0
  6
CENTER
 62
     2
 10
37.6743
 20
3.83333
 11
46.6743
 21
3.83333
  0
LINE
  8
0
  6
CENTER
 62
     2
 10
42.1743
 20
8.33333
 11
42.1743
 21
-0.66667
  0
ARC
  8
0
  6
CONTINUOUS
 62
     7
 10
96.53259
 20
-83.10118
 40
0.78202
 50
0.0
 51
89.99999
  0
ARC
  8
0
  6
CONTINUOUS
 62
     7
 10
102.9843
 20
-87.30457
 40
0.78202
 50
270.0
 51
0.0
  0
ARC
  8
0
  6
CONTINUOUS
 62
     7
 10
102.5933
 20
-83.49218
 40
1.17303
 50
0.0
 51
89.99999
  0
ARC
  8
0
  6
CONTINUOUS
 62
     7
 10
109.7292
 20
-83.10118
 40
0.78202
 50
0.0
 51
89.99999
  0
ARC
  8
0
  6
CONTINUOUS
 62
     7
 10
109.7292
 20
-83.72594
 40
0.78202
 50
295.0
 51
0.0
  0
ARC
  8
0
  6
CONTINUOUS
 62
     7
 10
115.7899
 20
-82.31916
 40
1.17304
 50
291.6882
 51
0.0
  0
ARC
  8
0
  6
CONTINUOUS
 62
     7
 10
115.3989
 20
-82.05386
 40
0.39101
 50
291.6885
 51
0.0
  0
ARC
  8
0
  6
PHANTOM
 62
     2
 10
-52.82567
 20
-38.66667
 40
0.5
 50
180.0
 51
270.0
  0
ARC
  8
0
  6
PHANTOM
 62
     2
 10
-29.82568
 20
-38.66667
 40
0.5
 50
270.0
 51
0.0
  0
ARC
  8
0
  6
PHANTOM
 62
     2
 10
-27.82568
 20
26.53332
 40
0.5
 50
0.0
 51
89.99999
  0
ARC
  8
0
  6
PHANTOM
 62
     2
 10
-27.82568
 20
24.13333
 40
0.5
 50
270.0
 51
0.0
  0
ARC
  8
0
  6
PHANTOM
 62
     2
 10
35.1743
 20
-38.66666
 40
0.5
 50
180.0
 51
270.0
  0
ARC
  8
0
  6
PHANTOM
 62
     2
 10
49.1743
 20
-38.66666
 40
0.5
 50
270.0
 51
0.0
  0
ARC
  8
0
  6
PHANTOM
 62
     2
 10
40.87429
 20
25.33333
 40
1.7
 50
89.99999
 51
270.0
  0
ARC
  8
0
  6
PHANTOM
 62
     2
 10
43.4743
 20
25.33333
 40
1.7
 50
270.0
 51
89.99999
  0
CIRCLE
  8
0
  6
PHANTOM
 62
     2
 10
40.87429
 20
25.33333
 40
0.85
  0
CIRCLE
  8
0
  6
PHANTOM
 62
     2
 10
43.4743
 20
25.33333
 40
0.85
  0
ARC
  8
0
  6
CONTINUOUS
 62
     7
 10
42.1743
 20
3.83333
 40
2.4
 50
14.47747
 51
165.5225
  0
CIRCLE
  8
0
  6
CONTINUOUS
 62
     7
 10
42.1743
 20
3.83333
 40
3.0
  0
ARC
  8
0
  6
CONTINUOUS
 62
     7
 10
42.1743
 20
3.83333
 40
2.4
 50
194.4774
 51
345.5225
  0
TEXT
  8
0
  6
CONTINUOUS
 62
     7
 10
-118.575
 20
65.68834
 40
3.5
  1
MODEL : 110E1-83
 41
0.8
  7
STANDARD
  0
TEXT
  8
0
  6
CONTINUOUS
 62
     7
 10
80.98867
 20
83.53382
 40
3.0
  1
DATE : AUG,1989
 41
0.8
  7
STANDARD
  0
TEXT
  8
0
  6
CONTINUOUS
 62
     7
 10
-122.8223
 20
83.29883
 40
3.5
  1
110 ROCK SW
 41
0.8
  7
STANDARD
  0
ENDSEC
  0
EOF
