  0
SECTION
  2
HEADER
  9
$ACADVER
  1
AC1002
  9
$INSBASE
 10
0.0
 20
0.0
  9
$EXTMIN
 10
-370.8736
 20
-254.5585
  9
$EXTMAX
 10
370.8736
 20
254.5585
  9
$LIMMIN
 10
0.0
 20
0.0
  9
$LIMMAX
 10
12.0
 20
9.0
  9
$VIEWCTR
 10
28.6093211
 20
0.0
  9
$VIEWSIZE
 40
509.117
  9
$SNAPMODE
 70
     0
  9
$SNAPUNIT
 10
1.0
 20
1.0
  9
$SNAPBASE
 10
0.0
 20
0.0
  9
$SNAPANG
 50
0.0
  9
$SNAPSTYLE
 70
     0
  9
$SNAPISOPAIR
 70
     0
  9
$GRIDMODE
 70
     0
  9
$GRIDUNIT
 10
0.0
 20
0.0
  9
$ORTHOMODE
 70
     0
  9
$REGENMODE
 70
     1
  9
$FILLMODE
 70
     1
  9
$QTEXTMODE
 70
     0
  9
$DRAGMODE
 70
     2
  9
$LTSCALE
 40
1.0
  9
$OSMODE
 70
     0
  9
$ATTMODE
 70
     1
  9
$TEXTSIZE
 40
0.2
  9
$TRACEWID
 40
0.05
  9
$TEXTSTYLE
  7
AAA
  9
$CLAYER
  8
0
  9
$CELTYPE
  6
BYLAYER
  9
$CECOLOR
 62
   256
  9
$DIMSCALE
 40
1.0
  9
$DIMASZ
 40
0.18
  9
$DIMEXO
 40
0.0625
  9
$DIMDLI
 40
0.38
  9
$DIMRND
 40
0.0
  9
$DIMDLE
 40
0.0
  9
$DIMEXE
 40
0.18
  9
$DIMTP
 40
0.0
  9
$DIMTM
 40
0.0
  9
$DIMTXT
 40
0.18
  9
$DIMCEN
 40
0.09
  9
$DIMTSZ
 40
0.0
  9
$DIMTOL
 70
     0
  9
$DIMLIM
 70
     0
  9
$DIMTIH
 70
     1
  9
$DIMTOH
 70
     1
  9
$DIMSE1
 70
     0
  9
$DIMSE2
 70
     0
  9
$DIMTAD
 70
     0
  9
$DIMZIN
 70
     0
  9
$DIMBLK
  1

  9
$LUNITS
 70
     2
  9
$LUPREC
 70
     4
  9
$AXISMODE
 70
     0
  9
$AXISUNIT
 10
0.0
 20
0.0
  9
$SKETCHINC
 40
0.1
  9
$FILLETRAD
 40
0.0
  9
$AUNITS
 70
     0
  9
$AUPREC
 70
     0
  9
$MENU
  1
ACAD
  9
$ELEVATION
 40
0.0
  9
$THICKNESS
 40
0.0
  9
$VIEWDIR
 10
0.0
 20
0.0
 30
1.0
  9
$LIMCHECK
 70
     0
  9
$BLIPMODE
 70
     1
  9
$CHAMFERA
 40
0.0
  9
$CHAMFERB
 40
0.0
  9
$FASTZOOM
 70
     1
  9
$SKPOLY
 70
     0
  9
$TDCREATE
 40
2447868.6395833832
  9
$TDUPDATE
 40
2447868.6395833832
  9
$TDINDWG
 40
0.0012962963
  9
$TDUSRTIMER
 40
0.0012962963
  9
$USRTIMER
 70
     1
  9
$ANGBASE
 50
0.0
  9
$ANGDIR
 70
     0
  9
$PDMODE
 70
     0
  9
$PDSIZE
 40
0.0
  9
$PLINEWID
 40
0.0
  9
$COORDS
 70
     0
  9
$USERI1
 70
     0
  9
$USERI2
 70
     0
  9
$USERI3
 70
     0
  9
$USERI4
 70
     0
  9
$USERI5
 70
     0
  9
$USERR1
 40
0.0
  9
$USERR2
 40
0.0
  9
$USERR3
 40
0.0
  9
$USERR4
 40
0.0
  9
$USERR5
 40
0.0
  0
ENDSEC
  0
SECTION
  2
TABLES
  0
TABLE
  2
LTYPE
 70
     3
  0
LTYPE
  2
CONTINUOUS
 70
    64
  3
SOLID
 72
    65
 73
     0
 40
0.0
  0
LTYPE
  2
CENTER
 70
    64
  3
CENTER
 72
    65
 73
     4
 40
2.0
 49
1.25
 49
-0.25
 49
0.25
 49
-0.25
  0
LTYPE
  2
PHANTOM
 70
    64
  3
PHANTOM
 72
    65
 73
     6
 40
2.5
 49
1.25
 49
-0.25
 49
0.25
 49
-0.25
 49
0.25
 49
-0.25
  0
ENDTAB
  0
TABLE
  2
LAYER
 70
     1
  0
LAYER
  2
0
 70
    64
 62
     7
  6
CONTINUOUS
  0
ENDTAB
  0
TABLE
  2
STYLE
 70
     2
  0
STYLE
  2
AAA
 70
     0
 40
0.0
 41
1.0
 50
0.0
 71
     0
 42
0.2
  3
TXT
  4

  0
STYLE
  2
STANDARD
 70
    64
 40
0.0
 41
1.0
 50
0.0
 71
     0
 42
0.2
  3
TXT
  4
BIGFONT
  0
ENDTAB
  0
TABLE
  2
VIEW
 70
     0
  0
ENDTAB
  0
ENDSEC
  0
SECTION
  2
BLOCKS
  0
ENDSEC
  0
SECTION
  2
ENTITIES
  0
POINT
  8
0
  6
CONTINUOUS
 62
     7
 10
-345.4368
 20
1.59998
  0
POINT
  8
0
  6
CONTINUOUS
 62
     7
 10
-321.4368
 20
1.59998
  0
POINT
  8
0
  6
CONTINUOUS
 62
     7
 10
-321.4368
 20
20.09998
  0
POINT
  8
0
  6
CONTINUOUS
 62
     7
 10
-195.4368
 20
1.60001
  0
POINT
  8
0
  6
CONTINUOUS
 62
     7
 10
-182.4368
 20
1.60001
  0
POINT
  8
0
  6
CONTINUOUS
 62
     7
 10
-189.9368
 20
20.10001
  0
POINT
  8
0
  6
CONTINUOUS
 62
     7
 10
-186.9368
 20
-2.39999
  0
POINT
  8
0
  6
CONTINUOUS
 62
     7
 10
-195.4368
 20
146.6
  0
POINT
  8
0
  6
CONTINUOUS
 62
     7
 10
-182.4368
 20
146.6
  0
POINT
  8
0
  6
CONTINUOUS
 62
     7
 10
-35.43677
 20
1.60001
  0
POINT
  8
0
  6
CONTINUOUS
 62
     7
 10
-59.43677
 20
20.10001
  0
POINT
  8
0
  6
CONTINUOUS
 62
     7
 10
-195.4368
 20
-179.3999
  0
POINT
  8
0
  6
CONTINUOUS
 62
     7
 10
-182.4368
 20
-179.3999
  0
POINT
  8
0
  6
CONTINUOUS
 62
     7
 10
-189.9368
 20
-155.3999
  0
POINT
  8
0
  6
CONTINUOUS
 62
     7
 10
46.4368
 20
-0.00005
  0
POINT
  8
0
  6
CONTINUOUS
 62
     7
 10
22.4368
 20
-0.00005
  0
POINT
  8
0
  6
CONTINUOUS
 62
     7
 10
46.4368
 20
18.49995
  0
POINT
  8
0
  6
CONTINUOUS
 62
     7
 10
172.4368
 20
145.0
  0
POINT
  8
0
  6
CONTINUOUS
 62
     7
 10
185.4368
 20
145.0
  0
POINT
  8
0
  6
CONTINUOUS
 62
     7
 10
332.4368
 20
-0.00003
  0
POINT
  8
0
  6
CONTINUOUS
 62
     7
 10
308.4368
 20
18.49997
  0
POINT
  8
0
  6
CONTINUOUS
 62
     7
 10
172.4368
 20
0.0
  0
POINT
  8
0
  6
CONTINUOUS
 62
     7
 10
185.4368
 20
0.0
  0
POINT
  8
0
  6
CONTINUOUS
 62
     7
 10
177.9368
 20
18.5
  0
POINT
  8
0
  6
CONTINUOUS
 62
     7
 10
172.4368
 20
-181.0
  0
POINT
  8
0
  6
CONTINUOUS
 62
     7
 10
185.4368
 20
-181.0
  0
POINT
  8
0
  6
CONTINUOUS
 62
     7
 10
177.9368
 20
-157.0
  0
LINE
  8
0
  6
CONTINUOUS
 62
     7
 10
218.3292
 20
-225.9564
 11
370.8736
 21
-225.9564
  0
LINE
  8
0
  6
CONTINUOUS
 62
     7
 10
-218.3292
 20
225.9564
 11
-218.3292
 21
254.5585
  0
LINE
  8
0
  6
CONTINUOUS
 62
     7
 10
-370.8736
 20
225.9564
 11
-218.3292
 21
225.9564
  0
LINE
  8
0
  6
CONTINUOUS
 62
     7
 10
-370.8736
 20
254.5585
 11
370.8736
 21
254.5585
  0
LINE
  8
0
  6
CONTINUOUS
 62
     7
 10
-370.8736
 20
-254.5585
 11
370.8736
 21
-254.5585
  0
LINE
  8
0
  6
CONTINUOUS
 62
     7
 10
370.8736
 20
254.5585
 11
370.8736
 21
-254.5585
  0
LINE
  8
0
  6
CONTINUOUS
 62
     7
 10
-370.8736
 20
-254.5585
 11
-370.8736
 21
254.5585
  0
LINE
  8
0
  6
CONTINUOUS
 62
     7
 10
218.3292
 20
-225.9564
 11
218.3292
 21
-254.5585
  0
LINE
  8
0
  6
CONTINUOUS
 62
     7
 10
218.3292
 20
254.5585
 11
218.3292
 21
225.9564
  0
LINE
  8
0
  6
CONTINUOUS
 62
     7
 10
218.3292
 20
225.9564
 11
370.8736
 21
225.9564
  0
LINE
  8
0
  6
CONTINUOUS
 62
     7
 10
258.3816
 20
-232.8337
 11
258.3816
 21
-236.1516
  0
LINE
  8
0
  6
CONTINUOUS
 62
     7
 10
258.3816
 20
-236.1516
 11
270.8235
 21
-236.1516
  0
LINE
  8
0
  6
CONTINUOUS
 62
     7
 10
258.3816
 20
-249.1465
 11
275.2473
 21
-249.1465
  0
LINE
  8
0
  6
CONTINUOUS
 62
     7
 10
258.3816
 20
-245.8286
 11
270.8235
 21
-245.8286
  0
LINE
  8
0
  6
CONTINUOUS
 62
     7
 10
258.3816
 20
-232.8337
 11
273.0354
 21
-232.8337
  0
LINE
  8
0
  6
CONTINUOUS
 62
     7
 10
270.8235
 20
-236.1516
 11
270.8235
 21
-245.8286
  0
LINE
  8
0
  6
CONTINUOUS
 62
     7
 10
275.2473
 20
-235.0457
 11
275.2473
 21
-249.1465
  0
LINE
  8
0
  6
CONTINUOUS
 62
     7
 10
258.3816
 20
-245.8286
 11
258.3816
 21
-249.1465
  0
LINE
  8
0
  6
CONTINUOUS
 62
     7
 10
293.4954
 20
-236.1516
 11
293.4954
 21
-246.9346
  0
LINE
  8
0
  6
CONTINUOUS
 62
     7
 10
277.7357
 20
-232.8337
 11
277.7357
 21
-236.1516
  0
LINE
  8
0
  6
CONTINUOUS
 62
     7
 10
293.9378
 20
-232.585
 11
295.5138
 21
-232.585
  0
LINE
  8
0
  6
CONTINUOUS
 62
     7
 10
293.9378
 20
-230.373
 11
295.5138
 21
-230.373
  0
LINE
  8
0
  6
CONTINUOUS
 62
     7
 10
295.5138
 20
-230.373
 11
295.5138
 21
-232.585
  0
LINE
  8
0
  6
CONTINUOUS
 62
     7
 10
293.9378
 20
-230.373
 11
293.9378
 21
-232.585
  0
LINE
  8
0
  6
CONTINUOUS
 62
     7
 10
293.1083
 20
-230.373
 11
293.1083
 21
-232.585
  0
LINE
  8
0
  6
CONTINUOUS
 62
     7
 10
282.7661
 20
-230.373
 11
286.2009
 21
-230.373
  0
LINE
  8
0
  6
CONTINUOUS
 62
     7
 10
285.5413
 20
-232.8335
 11
286.2006
 21
-230.3727
  0
LINE
  8
0
  6
CONTINUOUS
 62
     7
 10
282.1067
 20
-232.8337
 11
282.766
 21
-230.373
  0
LINE
  8
0
  6
CONTINUOUS
 62
     7
 10
285.5416
 20
-232.8337
 11
290.1776
 21
-232.8337
  0
LINE
  8
0
  6
CONTINUOUS
 62
     7
 10
284.6526
 20
-236.1516
 11
289.0716
 21
-236.1516
  0
LINE
  8
0
  6
CONTINUOUS
 62
     7
 10
286.6429
 20
-249.1465
 11
291.2836
 21
-249.1465
  0
LINE
  8
0
  6
CONTINUOUS
 62
     7
 10
285.7537
 20
-245.8286
 11
286.6427
 21
-249.1463
  0
LINE
  8
0
  6
CONTINUOUS
 62
     7
 10
285.7538
 20
-245.8286
 11
289.0716
 21
-245.8286
  0
LINE
  8
0
  6
CONTINUOUS
 62
     7
 10
281.1707
 20
-249.1466
 11
284.6527
 21
-236.1517
  0
LINE
  8
0
  6
CONTINUOUS
 62
     7
 10
277.7357
 20
-236.1516
 11
281.2177
 21
-236.1516
  0
LINE
  8
0
  6
CONTINUOUS
 62
     7
 10
277.7354
 20
-249.1462
 11
281.2175
 21
-236.1513
  0
LINE
  8
0
  6
CONTINUOUS
 62
     7
 10
277.7357
 20
-249.1465
 11
281.1706
 21
-249.1465
  0
LINE
  8
0
  6
CONTINUOUS
 62
     7
 10
277.7357
 20
-232.8337
 11
282.1067
 21
-232.8337
  0
LINE
  8
0
  6
CONTINUOUS
 62
     7
 10
289.0716
 20
-236.1516
 11
289.0716
 21
-245.8286
  0
LINE
  8
0
  6
CONTINUOUS
 62
     7
 10
291.5323
 20
-230.373
 11
293.1083
 21
-230.373
  0
LINE
  8
0
  6
CONTINUOUS
 62
     7
 10
291.5323
 20
-232.585
 11
293.1083
 21
-232.585
  0
LINE
  8
0
  6
CONTINUOUS
 62
     7
 10
291.5323
 20
-230.373
 11
291.5323
 21
-232.585
  0
LINE
  8
0
  6
CONTINUOUS
 62
     7
 10
301.5135
 20
-230.373
 11
305.9373
 21
-230.373
  0
LINE
  8
0
  6
CONTINUOUS
 62
     7
 10
308.3423
 20
-240.1951
 11
311.2962
 21
-238.8176
  0
LINE
  8
0
  6
CONTINUOUS
 62
     7
 10
305.9373
 20
-242.7344
 11
305.9373
 21
-249.1465
  0
LINE
  8
0
  6
CONTINUOUS
 62
     7
 10
301.5135
 20
-243.379
 11
301.5135
 21
-249.1465
  0
LINE
  8
0
  6
CONTINUOUS
 62
     7
 10
305.9373
 20
-232.8337
 11
310.3611
 21
-232.8337
  0
LINE
  8
0
  6
CONTINUOUS
 62
     7
 10
305.9373
 20
-230.373
 11
305.9373
 21
-232.8337
  0
LINE
  8
0
  6
CONTINUOUS
 62
     7
 10
301.5135
 20
-230.373
 11
301.5135
 21
-232.8337
  0
LINE
  8
0
  6
CONTINUOUS
 62
     7
 10
312.573
 20
-235.0457
 11
312.573
 21
-236.8128
  0
LINE
  8
0
  6
CONTINUOUS
 62
     7
 10
308.3424
 20
-240.195
 11
312.5734
 21
-242.168
  0
LINE
  8
0
  6
CONTINUOUS
 62
     7
 10
305.9373
 20
-242.7343
 11
312.5731
 21
-245.8286
  0
LINE
  8
0
  6
CONTINUOUS
 62
     7
 10
296.2603
 20
-242.1678
 11
296.2603
 21
-245.8286
  0
LINE
  8
0
  6
CONTINUOUS
 62
     7
 10
296.2607
 20
-242.1682
 11
309.1626
 21
-236.1519
  0
LINE
  8
0
  6
CONTINUOUS
 62
     7
 10
296.2603
 20
-245.8286
 11
301.5136
 21
-243.3789
  0
LINE
  8
0
  6
CONTINUOUS
 62
     7
 10
312.573
 20
-242.1678
 11
312.573
 21
-245.8286
  0
LINE
  8
0
  6
CONTINUOUS
 62
     7
 10
296.2603
 20
-232.8337
 11
296.2603
 21
-236.1516
  0
LINE
  8
0
  6
CONTINUOUS
 62
     7
 10
301.5135
 20
-249.1465
 11
305.9373
 21
-249.1465
  0
LINE
  8
0
  6
CONTINUOUS
 62
     7
 10
296.2603
 20
-236.1516
 11
309.1621
 21
-236.1516
  0
LINE
  8
0
  6
CONTINUOUS
 62
     7
 10
296.2603
 20
-232.8337
 11
301.5135
 21
-232.8337
  0
LINE
  8
0
  6
CONTINUOUS
 62
     7
 10
327.504
 20
-236.4047
 11
328.73
 21
-235.9171
  0
LINE
  8
0
  6
CONTINUOUS
 62
     7
 10
327.5034
 20
-236.4044
 11
327.5034
 21
-249.1465
  0
LINE
  8
0
  6
CONTINUOUS
 62
     7
 10
323.0795
 20
-249.1465
 11
327.5034
 21
-249.1465
  0
LINE
  8
0
  6
CONTINUOUS
 62
     7
 10
313.9553
 20
-241.7925
 11
323.0794
 21
-238.1637
  0
LINE
  8
0
  6
CONTINUOUS
 62
     7
 10
313.9555
 20
-238.222
 11
326.8062
 21
-233.1111
  0
LINE
  8
0
  6
CONTINUOUS
 62
     7
 10
323.0795
 20
-238.1638
 11
323.0795
 21
-249.1465
  0
LINE
  8
0
  6
CONTINUOUS
 62
     7
 10
327.5034
 20
-231.3684
 11
327.5034
 21
-232.0834
  0
LINE
  8
0
  6
CONTINUOUS
 62
     7
 10
330.8211
 20
-231.3684
 11
330.8211
 21
-232.8338
  0
LINE
  8
0
  6
CONTINUOUS
 62
     7
 10
313.9554
 20
-238.2219
 11
313.9554
 21
-241.7925
  0
LINE
  8
0
  6
CONTINUOUS
 62
     7
 10
327.5034
 20
-231.3684
 11
330.8211
 21
-231.3684
  0
LINE
  8
0
  6
CONTINUOUS
 62
     7
 10
0.0
 20
254.5585
 11
0.0
 21
-254.5585
  0
LINE
  8
0
  6
CONTINUOUS
 62
     7
 10
-197.4368
 20
49.8
 11
-197.4368
 21
-28.39999
  0
LINE
  8
0
  6
CONTINUOUS
 62
     7
 10
-182.4368
 20
49.8
 11
-182.4368
 21
-28.39999
  0
LINE
  8
0
  6
CONTINUOUS
 62
     7
 10
-197.4368
 20
23.60001
 11
-182.4368
 21
23.60001
  0
LINE
  8
0
  6
CONTINUOUS
 62
     7
 10
-197.4368
 20
6.60001
 11
-182.4368
 21
6.60001
  0
LINE
  8
0
  6
CENTER
 62
     2
 10
-189.9368
 20
53.60001
 11
-189.9368
 21
-30.89853
  0
LINE
  8
0
  6
CENTER
 62
     2
 10
-192.3217
 20
20.10001
 11
-187.4751
 21
20.10001
  0
LINE
  8
0
  6
CONTINUOUS
 62
     7
 10
-197.4368
 20
-21.39999
 11
-182.4368
 21
-21.39999
  0
LINE
  8
0
  6
CONTINUOUS
 62
     7
 10
-196.9368
 20
-28.89999
 11
-182.9368
 21
-28.89999
  0
LINE
  8
0
  6
CONTINUOUS
 62
     7
 10
-196.9368
 20
-23.89999
 11
-191.7368
 21
-23.89999
  0
LINE
  8
0
  6
CENTER
 62
     2
 10
-194.4368
 20
-22.54999
 11
-194.4368
 21
-30.89853
  0
LINE
  8
0
  6
CONTINUOUS
 62
     7
 10
-191.2368
 20
-24.39999
 11
-191.2368
 21
-28.39999
  0
LINE
  8
0
  6
CENTER
 62
     2
 10
-190.3974
 20
-2.39999
 11
-183.3567
 21
-2.39999
  0
LINE
  8
0
  6
CENTER
 62
     2
 10
-186.9368
 20
0.8978
 11
-186.9368
 21
-5.72876
  0
LINE
  8
0
  6
CENTER
 62
     2
 10
-198.0076
 20
1.60001
 11
-191.8987
 21
1.60001
  0
LINE
  8
0
  6
CENTER
 62
     2
 10
-187.7054
 20
-16.39999
 11
-181.8554
 21
-16.39999
  0
LINE
  8
0
  6
CENTER
 62
     2
 10
-184.4368
 20
-12.873
 11
-184.4368
 21
-19.81017
  0
LINE
  8
0
  6
CENTER
 62
     2
 10
-195.4368
 20
5.0394
 11
-195.4368
 21
-1.74246
  0
LINE
  8
0
  6
CONTINUOUS
 62
     7
 10
-197.2368
 20
-25.07182
 11
-197.2368
 21
-23.89999
  0
LINE
  8
0
  6
CONTINUOUS
 62
     7
 10
-191.6368
 20
-25.07182
 11
-191.6368
 21
-23.89999
  0
LINE
  8
0
  6
CONTINUOUS
 62
     7
 10
-197.4368
 20
48.80002
 11
-196.9368
 21
48.80002
  0
LINE
  8
0
  6
CONTINUOUS
 62
     7
 10
-182.9368
 20
50.60001
 11
-182.9368
 21
44.60001
  0
LINE
  8
0
  6
CONTINUOUS
 62
     7
 10
-196.9368
 20
50.60001
 11
-196.9368
 21
44.60001
  0
LINE
  8
0
  6
CONTINUOUS
 62
     7
 10
-196.9368
 20
50.60001
 11
-182.9368
 21
50.60001
  0
LINE
  8
0
  6
CONTINUOUS
 62
     7
 10
-196.9368
 20
44.60001
 11
-182.9368
 21
44.60001
  0
LINE
  8
0
  6
CONTINUOUS
 62
     7
 10
-182.9368
 20
48.80002
 11
-182.4368
 21
48.80002
  0
LINE
  8
0
  6
CONTINUOUS
 62
     7
 10
-196.9368
 20
43.80002
 11
-196.9368
 21
24.40001
  0
LINE
  8
0
  6
CONTINUOUS
 62
     7
 10
-182.9368
 20
43.80002
 11
-182.9368
 21
24.40001
  0
LINE
  8
0
  6
CONTINUOUS
 62
     7
 10
-195.4368
 20
25.10001
 11
-184.4368
 21
25.10001
  0
LINE
  8
0
  6
CONTINUOUS
 62
     7
 10
-195.4368
 20
33.60001
 11
-184.4368
 21
33.60001
  0
LINE
  8
0
  6
CONTINUOUS
 62
     7
 10
-195.4368
 20
33.60001
 11
-195.4368
 21
25.10001
  0
LINE
  8
0
  6
CONTINUOUS
 62
     7
 10
-184.4368
 20
33.60001
 11
-184.4368
 21
25.10001
  0
LINE
  8
0
  6
CONTINUOUS
 62
     7
 10
-191.9368
 20
37.10001
 11
-187.9368
 21
37.10001
  0
LINE
  8
0
  6
CONTINUOUS
 62
     7
 10
-191.9368
 20
35.10001
 11
-187.9368
 21
35.10001
  0
LINE
  8
0
  6
CONTINUOUS
 62
     7
 10
-191.9368
 20
37.10001
 11
-191.9368
 21
35.10001
  0
LINE
  8
0
  6
CONTINUOUS
 62
     7
 10
-187.9368
 20
37.10001
 11
-187.9368
 21
35.10001
  0
LINE
  8
0
  6
CONTINUOUS
 62
     7
 10
-192.4368
 20
37.60001
 11
-187.4368
 21
37.60001
  0
LINE
  8
0
  6
CONTINUOUS
 62
     7
 10
-192.4368
 20
37.60001
 11
-192.4368
 21
34.60001
  0
LINE
  8
0
  6
CONTINUOUS
 62
     7
 10
-192.4368
 20
34.60001
 11
-187.4368
 21
34.60001
  0
LINE
  8
0
  6
CONTINUOUS
 62
     7
 10
-187.4368
 20
37.60001
 11
-187.4368
 21
34.60001
  0
LINE
  8
0
  6
CONTINUOUS
 62
     7
 10
-191.9368
 20
37.10002
 11
-192.4368
 21
37.60002
  0
LINE
  8
0
  6
CONTINUOUS
 62
     7
 10
-187.9368
 20
37.10002
 11
-187.4368
 21
37.60003
  0
LINE
  8
0
  6
CONTINUOUS
 62
     7
 10
-187.9368
 20
35.10002
 11
-187.4368
 21
34.60002
  0
LINE
  8
0
  6
CONTINUOUS
 62
     7
 10
-191.9368
 20
35.10002
 11
-192.4368
 21
34.60003
  0
LINE
  8
0
  6
CONTINUOUS
 62
     7
 10
-196.4368
 20
51.80002
 11
-196.2625
 21
51.80002
  0
LINE
  8
0
  6
CONTINUOUS
 62
     7
 10
-197.4368
 20
49.80002
 11
-196.9368
 21
49.80002
  0
LINE
  8
0
  6
CONTINUOUS
 62
     7
 10
-197.4368
 20
49.80004
 11
-196.4368
 21
51.80003
  0
LINE
  8
0
  6
CONTINUOUS
 62
     7
 10
-182.4368
 20
49.8
 11
-183.4368
 21
51.8
  0
LINE
  8
0
  6
CENTER
 62
     2
 10
-194.4368
 20
54.80002
 11
-194.4368
 21
45.80002
  0
LINE
  8
0
  6
CONTINUOUS
 62
     7
 10
-196.9368
 20
50.40001
 11
-196.9868
 21
50.40001
  0
LINE
  8
0
  6
CONTINUOUS
 62
     7
 10
-196.9868
 20
50.40001
 11
-196.9868
 21
49.80002
  0
LINE
  8
0
  6
CONTINUOUS
 62
     7
 10
-182.9368
 20
49.80002
 11
-182.4368
 21
49.80002
  0
LINE
  8
0
  6
CONTINUOUS
 62
     7
 10
-196.6868
 20
51.09375
 11
-196.6868
 21
50.60001
  0
LINE
  8
0
  6
CONTINUOUS
 62
     7
 10
-195.6368
 20
47.0
 11
-193.9368
 21
47.0
  0
LINE
  8
0
  6
CONTINUOUS
 62
     7
 10
-195.6368
 20
49.0
 11
-194.1368
 21
49.0
  0
LINE
  8
0
  6
CONTINUOUS
 62
     7
 10
-185.7368
 20
50.60001
 11
-185.7368
 21
49.0
  0
LINE
  8
0
  6
CONTINUOUS
 62
     7
 10
-194.1368
 20
50.60001
 11
-194.1368
 21
49.0
  0
LINE
  8
0
  6
CONTINUOUS
 62
     7
 10
-184.2368
 20
49.0
 11
-184.2368
 21
47.0
  0
LINE
  8
0
  6
CONTINUOUS
 62
     7
 10
-195.6368
 20
49.0
 11
-195.6368
 21
47.0
  0
LINE
  8
0
  6
CONTINUOUS
 62
     7
 10
-194.1368
 20
47.0
 11
-194.1368
 21
44.60001
  0
LINE
  8
0
  6
CONTINUOUS
 62
     7
 10
-185.7368
 20
47.0
 11
-185.7368
 21
44.60001
  0
LINE
  8
0
  6
CONTINUOUS
 62
     7
 10
-185.7368
 20
49.0
 11
-184.2368
 21
49.0
  0
LINE
  8
0
  6
CONTINUOUS
 62
     7
 10
-185.9368
 20
47.0
 11
-184.2368
 21
47.0
  0
LINE
  8
0
  6
CENTER
 62
     2
 10
-185.4368
 20
54.80002
 11
-185.4368
 21
45.80002
  0
LINE
  8
0
  6
CONTINUOUS
 62
     7
 10
-195.4368
 20
48.80002
 11
-193.9368
 21
48.80002
  0
LINE
  8
0
  6
CONTINUOUS
 62
     7
 10
-193.9368
 20
51.60001
 11
-185.9368
 21
51.60001
  0
LINE
  8
0
  6
CONTINUOUS
 62
     7
 10
-195.4368
 20
48.80002
 11
-195.4368
 21
47.0
  0
LINE
  8
0
  6
CONTINUOUS
 62
     7
 10
-184.4368
 20
48.80002
 11
-184.4368
 21
47.0
  0
LINE
  8
0
  6
CONTINUOUS
 62
     7
 10
-193.9367
 20
49.6
 11
-193.6367
 21
49.90001
  0
LINE
  8
0
  6
CONTINUOUS
 62
     7
 10
-185.9368
 20
49.59997
 11
-186.2368
 21
49.89997
  0
LINE
  8
0
  6
CONTINUOUS
 62
     7
 10
-193.9368
 20
47.0
 11
-193.9368
 21
44.60001
  0
LINE
  8
0
  6
CONTINUOUS
 62
     7
 10
-185.9368
 20
47.0
 11
-185.9368
 21
44.60001
  0
LINE
  8
0
  6
CONTINUOUS
 62
     7
 10
-185.9368
 20
48.80002
 11
-184.4368
 21
48.80002
  0
LINE
  8
0
  6
CENTER
 62
     2
 10
-193.8868
 20
48.10001
 11
-185.9868
 21
48.10001
  0
LINE
  8
0
  6
CENTER
 62
     2
 10
-192.4368
 20
49.45001
 11
-192.4368
 21
46.65001
  0
LINE
  8
0
  6
CENTER
 62
     2
 10
-187.4368
 20
49.45001
 11
-187.4368
 21
46.65001
  0
LINE
  8
0
  6
CONTINUOUS
 62
     7
 10
-193.3868
 20
49.05002
 11
-191.4868
 21
49.05002
  0
LINE
  8
0
  6
CONTINUOUS
 62
     7
 10
-193.3868
 20
47.15001
 11
-191.4868
 21
47.15001
  0
LINE
  8
0
  6
CONTINUOUS
 62
     7
 10
-193.3868
 20
49.25
 11
-193.3868
 21
47.15001
  0
LINE
  8
0
  6
CONTINUOUS
 62
     7
 10
-191.4868
 20
49.25
 11
-191.4868
 21
47.15001
  0
LINE
  8
0
  6
CONTINUOUS
 62
     7
 10
-190.8868
 20
49.25
 11
-190.8868
 21
47.15001
  0
LINE
  8
0
  6
CONTINUOUS
 62
     7
 10
-188.9868
 20
49.25
 11
-188.9868
 21
47.15001
  0
LINE
  8
0
  6
CONTINUOUS
 62
     7
 10
-186.4868
 20
49.25
 11
-186.4868
 21
47.15001
  0
LINE
  8
0
  6
CONTINUOUS
 62
     7
 10
-188.3868
 20
49.25
 11
-188.3868
 21
47.15001
  0
LINE
  8
0
  6
CONTINUOUS
 62
     7
 10
-190.8868
 20
49.05002
 11
-188.9868
 21
49.05002
  0
LINE
  8
0
  6
CONTINUOUS
 62
     7
 10
-190.8868
 20
47.15001
 11
-188.9868
 21
47.15001
  0
LINE
  8
0
  6
CONTINUOUS
 62
     7
 10
-188.3868
 20
47.15001
 11
-186.4868
 21
47.15001
  0
LINE
  8
0
  6
CONTINUOUS
 62
     7
 10
-188.3868
 20
49.05002
 11
-186.4868
 21
49.05002
  0
LINE
  8
0
  6
CONTINUOUS
 62
     7
 10
-194.1368
 20
49.60001
 11
-185.7368
 21
49.60001
  0
LINE
  8
0
  6
CONTINUOUS
 62
     7
 10
-193.6368
 20
49.90001
 11
-186.2368
 21
49.90001
  0
LINE
  8
0
  6
CONTINUOUS
 62
     7
 10
-193.9368
 20
52.60001
 11
-185.9368
 21
52.60001
  0
LINE
  8
0
  6
CONTINUOUS
 62
     7
 10
-185.9368
 20
52.60001
 11
-185.9368
 21
48.80002
  0
LINE
  8
0
  6
CONTINUOUS
 62
     7
 10
-193.9368
 20
52.60001
 11
-193.9368
 21
48.80002
  0
LINE
  8
0
  6
CONTINUOUS
 62
     7
 10
-193.3868
 20
49.25
 11
-191.4868
 21
49.25
  0
LINE
  8
0
  6
CONTINUOUS
 62
     7
 10
-190.8868
 20
49.25
 11
-188.9868
 21
49.25
  0
LINE
  8
0
  6
CONTINUOUS
 62
     7
 10
-188.3868
 20
49.25
 11
-186.4868
 21
49.25
  0
LINE
  8
0
  6
CONTINUOUS
 62
     7
 10
-192.9368
 20
46.85001
 11
-191.9368
 21
46.85001
  0
LINE
  8
0
  6
CONTINUOUS
 62
     7
 10
-190.4368
 20
46.85001
 11
-189.4368
 21
46.85001
  0
LINE
  8
0
  6
CONTINUOUS
 62
     7
 10
-187.9368
 20
46.85001
 11
-186.9368
 21
46.85001
  0
LINE
  8
0
  6
CONTINUOUS
 62
     7
 10
-192.9368
 20
47.15001
 11
-192.9368
 21
46.85001
  0
LINE
  8
0
  6
CONTINUOUS
 62
     7
 10
-191.9368
 20
47.15001
 11
-191.9368
 21
46.85001
  0
LINE
  8
0
  6
CONTINUOUS
 62
     7
 10
-190.4368
 20
47.15001
 11
-190.4368
 21
46.85001
  0
LINE
  8
0
  6
CONTINUOUS
 62
     7
 10
-189.4368
 20
47.15001
 11
-189.4368
 21
46.85001
  0
LINE
  8
0
  6
CONTINUOUS
 62
     7
 10
-186.9368
 20
47.15001
 11
-186.9368
 21
46.85001
  0
LINE
  8
0
  6
CONTINUOUS
 62
     7
 10
-187.9368
 20
47.15001
 11
-187.9368
 21
46.85001
  0
LINE
  8
0
  6
CONTINUOUS
 62
     7
 10
-192.9368
 20
45.72501
 11
-191.9368
 21
45.72501
  0
LINE
  8
0
  6
CONTINUOUS
 62
     7
 10
-192.4368
 20
46.22501
 11
-192.4368
 21
45.22501
  0
LINE
  8
0
  6
CONTINUOUS
 62
     7
 10
-187.9368
 20
45.72501
 11
-186.9368
 21
45.72501
  0
LINE
  8
0
  6
CONTINUOUS
 62
     7
 10
-183.4368
 20
51.8
 11
-185.9368
 21
51.8
  0
LINE
  8
0
  6
CENTER
 62
     2
 10
-193.9368
 20
36.10001
 11
-185.9368
 21
36.10001
  0
LINE
  8
0
  6
CONTINUOUS
 62
     7
 10
-182.4368
 20
122.6
 11
-197.4368
 21
122.6
  0
LINE
  8
0
  6
CONTINUOUS
 62
     7
 10
-182.9368
 20
113.5
 11
-185.9368
 21
113.5
  0
LINE
  8
0
  6
CONTINUOUS
 62
     7
 10
-191.4368
 20
125.6
 11
-191.4368
 21
122.6
  0
LINE
  8
0
  6
CONTINUOUS
 62
     7
 10
-188.4368
 20
143.6
 11
-188.4368
 21
146.6
  0
LINE
  8
0
  6
CONTINUOUS
 62
     7
 10
-185.4368
 20
140.6
 11
-182.4368
 21
140.6
  0
LINE
  8
0
  6
CONTINUOUS
 62
     7
 10
-194.4368
 20
128.6
 11
-197.4368
 21
128.6
  0
LINE
  8
0
  6
CONTINUOUS
 62
     7
 10
-188.4368
 20
145.6
 11
-196.4368
 21
145.6
  0
LINE
  8
0
  6
CONTINUOUS
 62
     7
 10
-183.4368
 20
123.6
 11
-191.4368
 21
123.6
  0
LINE
  8
0
  6
CONTINUOUS
 62
     7
 10
-183.4368
 20
140.6
 11
-183.4368
 21
123.6
  0
LINE
  8
0
  6
CONTINUOUS
 62
     7
 10
-196.4368
 20
145.6
 11
-196.4368
 21
128.6
  0
LINE
  8
0
  6
CONTINUOUS
 62
     7
 10
-196.6667
 20
125.3
 11
-196.9691
 21
125.3
  0
LINE
  8
0
  6
CONTINUOUS
 62
     7
 10
-196.6667
 20
125.9
 11
-196.9691
 21
125.9
  0
LINE
  8
0
  6
CONTINUOUS
 62
     7
 10
-196.9449
 20
126.0608
 11
-196.6391
 21
126.0608
  0
LINE
  8
0
  6
CONTINUOUS
 62
     7
 10
-183.2069
 20
143.9
 11
-182.9045
 21
143.9
  0
LINE
  8
0
  6
CONTINUOUS
 62
     7
 10
-183.2069
 20
143.3
 11
-182.9045
 21
143.3
  0
LINE
  8
0
  6
CONTINUOUS
 62
     7
 10
-182.9288
 20
143.1392
 11
-183.2345
 21
143.1392
  0
LINE
  8
0
  6
CONTINUOUS
 62
     7
 10
-195.1722
 20
126.7031
 11
-194.8045
 21
126.3354
  0
LINE
  8
0
  6
CONTINUOUS
 62
     7
 10
-195.5399
 20
126.3354
 11
-195.1722
 21
125.9677
  0
LINE
  8
0
  6
CONTINUOUS
 62
     7
 10
-195.1722
 20
126.7031
 11
-195.5399
 21
126.3354
  0
LINE
  8
0
  6
CONTINUOUS
 62
     7
 10
-193.3337
 20
124.8646
 11
-193.7014
 21
124.4969
  0
LINE
  8
0
  6
CONTINUOUS
 62
     7
 10
-193.0403
 20
127.3642
 11
-194.0691
 21
126.3354
  0
LINE
  8
0
  6
CONTINUOUS
 62
     7
 10
-192.6726
 20
126.9965
 11
-193.7014
 21
125.9677
  0
LINE
  8
0
  6
CONTINUOUS
 62
     7
 10
-193.7014
 20
125.2323
 11
-193.3338
 21
124.8646
  0
LINE
  8
0
  6
CONTINUOUS
 62
     7
 10
-194.0692
 20
124.8646
 11
-193.7015
 21
124.4969
  0
LINE
  8
0
  6
CONTINUOUS
 62
     7
 10
-195.1722
 20
125.2323
 11
-196.201
 21
124.2035
  0
LINE
  8
0
  6
CONTINUOUS
 62
     7
 10
-194.8045
 20
124.8646
 11
-195.8333
 21
123.8358
  0
LINE
  8
0
  6
CONTINUOUS
 62
     7
 10
-186.1722
 20
144.7031
 11
-185.8045
 21
144.3354
  0
LINE
  8
0
  6
CONTINUOUS
 62
     7
 10
-186.5399
 20
144.3354
 11
-186.1722
 21
143.9677
  0
LINE
  8
0
  6
CONTINUOUS
 62
     7
 10
-186.1722
 20
144.7031
 11
-186.5399
 21
144.3354
  0
LINE
  8
0
  6
CONTINUOUS
 62
     7
 10
-184.3337
 20
142.8646
 11
-184.7014
 21
142.4969
  0
LINE
  8
0
  6
CONTINUOUS
 62
     7
 10
-184.0403
 20
145.3642
 11
-185.0691
 21
144.3354
  0
LINE
  8
0
  6
CONTINUOUS
 62
     7
 10
-183.6726
 20
144.9965
 11
-184.7014
 21
143.9677
  0
LINE
  8
0
  6
CONTINUOUS
 62
     7
 10
-184.7014
 20
143.2323
 11
-184.3337
 21
142.8646
  0
LINE
  8
0
  6
CONTINUOUS
 62
     7
 10
-185.0691
 20
142.8646
 11
-184.7014
 21
142.4969
  0
LINE
  8
0
  6
CONTINUOUS
 62
     7
 10
-186.1722
 20
143.2323
 11
-187.201
 21
142.2035
  0
LINE
  8
0
  6
CONTINUOUS
 62
     7
 10
-185.8045
 20
142.8646
 11
-186.8333
 21
141.8358
  0
LINE
  8
0
  6
CONTINUOUS
 62
     7
 10
-185.9368
 20
104.1
 11
-193.9368
 21
104.1
  0
LINE
  8
0
  6
CONTINUOUS
 62
     7
 10
-185.9368
 20
109.7713
 11
-193.9368
 21
109.7713
  0
LINE
  8
0
  6
CONTINUOUS
 62
     7
 10
-185.9368
 20
121.1
 11
-193.9368
 21
121.1
  0
LINE
  8
0
  6
CONTINUOUS
 62
     7
 10
-194.1368
 20
122.6
 11
-194.1368
 21
119.1
  0
LINE
  8
0
  6
CONTINUOUS
 62
     7
 10
-185.7368
 20
122.6
 11
-185.7368
 21
119.1
  0
LINE
  8
0
  6
CONTINUOUS
 62
     7
 10
-185.7368
 20
119.1
 11
-185.9368
 21
119.1
  0
LINE
  8
0
  6
CONTINUOUS
 62
     7
 10
-185.7368
 20
118.1
 11
-185.9368
 21
118.1
  0
LINE
  8
0
  6
CONTINUOUS
 62
     7
 10
-194.1368
 20
118.1
 11
-194.1368
 21
113.5
  0
LINE
  8
0
  6
CONTINUOUS
 62
     7
 10
-185.7368
 20
118.1
 11
-185.7368
 21
113.5
  0
LINE
  8
0
  6
CONTINUOUS
 62
     7
 10
-193.9368
 20
113.5
 11
-196.9368
 21
113.5
  0
LINE
  8
0
  6
CONTINUOUS
 62
     7
 10
-193.9368
 20
118.1
 11
-194.1368
 21
118.1
  0
LINE
  8
0
  6
CONTINUOUS
 62
     7
 10
-193.9368
 20
119.1
 11
-194.1368
 21
119.1
  0
LINE
  8
0
  6
CENTER
 62
     2
 10
-190.4368
 20
125.6
 11
-198.4368
 21
125.6
  0
LINE
  8
0
  6
CENTER
 62
     2
 10
-181.4368
 20
143.6
 11
-189.4368
 21
143.6
  0
LINE
  8
0
  6
CENTER
 62
     2
 10
-185.4368
 20
147.6
 11
-185.4368
 21
139.6
  0
LINE
  8
0
  6
CENTER
 62
     2
 10
-194.4368
 20
129.6
 11
-194.4368
 21
121.6
  0
LINE
  8
0
  6
CONTINUOUS
 62
     7
 10
-182.4368
 20
146.1
 11
-182.4368
 21
122.6
  0
LINE
  8
0
  6
CONTINUOUS
 62
     7
 10
-182.9368
 20
146.6
 11
-196.9368
 21
146.6
  0
LINE
  8
0
  6
CONTINUOUS
 62
     7
 10
-197.4368
 20
146.1
 11
-197.4368
 21
122.6
  0
LINE
  8
0
  6
CONTINUOUS
 62
     7
 10
-182.9368
 20
122.6
 11
-182.9368
 21
113.4
  0
LINE
  8
0
  6
CONTINUOUS
 62
     7
 10
-183.7368
 20
112.6
 11
-184.4368
 21
112.6
  0
LINE
  8
0
  6
CONTINUOUS
 62
     7
 10
-195.4368
 20
112.6
 11
-196.1368
 21
112.6
  0
LINE
  8
0
  6
CONTINUOUS
 62
     7
 10
-196.9368
 20
122.6
 11
-196.9368
 21
113.4
  0
LINE
  8
0
  6
CONTINUOUS
 62
     7
 10
-195.4368
 20
113.5
 11
-195.4368
 21
102.1
  0
LINE
  8
0
  6
CONTINUOUS
 62
     7
 10
-184.4368
 20
102.1
 11
-195.4368
 21
102.1
  0
LINE
  8
0
  6
CONTINUOUS
 62
     7
 10
-184.4368
 20
113.5
 11
-184.4368
 21
102.1
  0
LINE
  8
0
  6
CONTINUOUS
 62
     7
 10
-185.9368
 20
121.1
 11
-185.9368
 21
102.1
  0
LINE
  8
0
  6
CONTINUOUS
 62
     7
 10
-193.9368
 20
121.1
 11
-193.9368
 21
102.1
  0
LINE
  8
0
  6
CONTINUOUS
 62
     7
 10
-186.5868
 20
102.1
 11
-186.5868
 21
96.97884
  0
LINE
  8
0
  6
CONTINUOUS
 62
     7
 10
-188.2868
 20
102.1
 11
-188.2868
 21
97.43434
  0
LINE
  8
0
  6
CENTER
 62
     2
 10
-187.4368
 20
105.1
 11
-187.4368
 21
79.10001
  0
LINE
  8
0
  6
CONTINUOUS
 62
     7
 10
-187.1168
 20
92.10001
 11
-187.1168
 21
82.10001
  0
LINE
  8
0
  6
CONTINUOUS
 62
     7
 10
-186.5868
 20
92.10001
 11
-188.2868
 21
92.10001
  0
LINE
  8
0
  6
CONTINUOUS
 62
     7
 10
-187.1168
 20
82.10001
 11
-187.7568
 21
82.10001
  0
LINE
  8
0
  6
CONTINUOUS
 62
     7
 10
-187.7568
 20
92.10001
 11
-187.7568
 21
82.10001
  0
LINE
  8
0
  6
CONTINUOUS
 62
     7
 10
-192.1168
 20
92.10001
 11
-192.1168
 21
82.10001
  0
LINE
  8
0
  6
CONTINUOUS
 62
     7
 10
-192.1168
 20
82.10001
 11
-192.7568
 21
82.10001
  0
LINE
  8
0
  6
CONTINUOUS
 62
     7
 10
-192.7568
 20
92.10001
 11
-192.7568
 21
82.10001
  0
LINE
  8
0
  6
CENTER
 62
     2
 10
-192.4368
 20
105.1
 11
-192.4368
 21
79.10001
  0
LINE
  8
0
  6
CONTINUOUS
 62
     7
 10
-191.5868
 20
102.1
 11
-191.5868
 21
98.31857
  0
LINE
  8
0
  6
CONTINUOUS
 62
     7
 10
-191.5868
 20
92.10001
 11
-193.2868
 21
92.10001
  0
LINE
  8
0
  6
CONTINUOUS
 62
     7
 10
-193.2868
 20
102.1
 11
-193.2868
 21
98.77409
  0
LINE
  8
0
  6
PHANTOM
 62
     2
 10
-195.2868
 20
99.31
 11
-184.5868
 21
96.44294
  0
LINE
  8
0
  6
PHANTOM
 62
     2
 10
-195.2868
 20
97.75708
 11
-184.5868
 21
94.89002
  0
LINE
  8
0
  6
CONTINUOUS
 62
     7
 10
-186.5868
 20
95.42592
 11
-186.5868
 21
92.10001
  0
LINE
  8
0
  6
CONTINUOUS
 62
     7
 10
-188.2868
 20
95.88144
 11
-188.2868
 21
92.10001
  0
LINE
  8
0
  6
CONTINUOUS
 62
     7
 10
-191.5868
 20
96.76566
 11
-191.5868
 21
92.10001
  0
LINE
  8
0
  6
CONTINUOUS
 62
     7
 10
-193.2868
 20
97.22118
 11
-193.2868
 21
92.10001
  0
LINE
  8
0
  6
CENTER
 62
     2
 10
-189.9368
 20
100.0951
 11
-189.9368
 21
148.6
  0
LINE
  8
0
  6
CENTER
 62
     2
 10
-199.8852
 20
134.6
 11
-179.949
 21
134.6
  0
LINE
  8
0
  6
CONTINUOUS
 62
     7
 10
-345.4368
 20
23.59998
 11
-312.2368
 21
23.59998
  0
LINE
  8
0
  6
CONTINUOUS
 62
     7
 10
-345.4368
 20
49.79997
 11
-345.4368
 21
-28.40002
  0
LINE
  8
0
  6
CONTINUOUS
 62
     7
 10
-345.4368
 20
6.59998
 11
-321.4368
 21
6.59998
  0
LINE
  8
0
  6
CENTER
 62
     2
 10
-333.4368
 20
54.59998
 11
-333.4368
 21
-31.20001
  0
LINE
  8
0
  6
CONTINUOUS
 62
     7
 10
-321.4368
 20
50.59998
 11
-321.4368
 21
-28.40002
  0
LINE
  8
0
  6
CONTINUOUS
 62
     7
 10
-327.1368
 20
-23.90002
 11
-321.9368
 21
-23.90002
  0
LINE
  8
0
  6
CENTER
 62
     2
 10
-324.4368
 20
-22.10002
 11
-324.4368
 21
-31.55002
  0
LINE
  8
0
  6
CONTINUOUS
 62
     7
 10
-327.2368
 20
-25.07184
 11
-327.2368
 21
-23.90002
  0
LINE
  8
0
  6
CONTINUOUS
 62
     7
 10
-321.6368
 20
-25.07184
 11
-321.6368
 21
-23.90002
  0
LINE
  8
0
  6
CONTINUOUS
 62
     7
 10
-345.4368
 20
-21.40002
 11
-321.4368
 21
-21.40002
  0
LINE
  8
0
  6
CONTINUOUS
 62
     7
 10
-344.9368
 20
-28.90002
 11
-321.9368
 21
-28.90002
  0
LINE
  8
0
  6
CONTINUOUS
 62
     7
 10
-327.1368
 20
-23.90002
 11
-321.9368
 21
-23.90002
  0
LINE
  8
0
  6
CONTINUOUS
 62
     7
 10
-327.6368
 20
-24.40002
 11
-327.6368
 21
-28.40002
  0
LINE
  8
0
  6
CENTER
 62
     2
 10
-325.8412
 20
1.59998
 11
-320.6112
 21
1.59998
  0
LINE
  8
0
  6
CONTINUOUS
 62
     7
 10
-324.4368
 20
3.41382
 11
-324.4368
 21
-0.21387
  0
LINE
  8
0
  6
CONTINUOUS
 62
     7
 10
-324.4368
 20
3.41382
 11
-321.4368
 21
3.41382
  0
LINE
  8
0
  6
CONTINUOUS
 62
     7
 10
-324.4368
 20
-0.21387
 11
-321.4368
 21
-0.21387
  0
LINE
  8
0
  6
CONTINUOUS
 62
     7
 10
-345.4368
 20
48.79999
 11
-321.4368
 21
48.79999
  0
LINE
  8
0
  6
CONTINUOUS
 62
     7
 10
-311.4368
 20
43.79999
 11
-311.4368
 21
24.39998
  0
LINE
  8
0
  6
CONTINUOUS
 62
     7
 10
-321.4368
 20
50.59998
 11
-310.4368
 21
50.59998
  0
LINE
  8
0
  6
CONTINUOUS
 62
     7
 10
-312.3368
 20
50.59998
 11
-312.3368
 21
44.59998
  0
LINE
  8
0
  6
CONTINUOUS
 62
     7
 10
-321.4368
 20
44.59998
 11
-308.9368
 21
44.59998
  0
LINE
  8
0
  6
CONTINUOUS
 62
     7
 10
-344.4368
 20
51.79999
 11
-326.2626
 21
51.79999
  0
LINE
  8
0
  6
CONTINUOUS
 62
     7
 10
-345.4368
 20
49.79999
 11
-321.4368
 21
49.79999
  0
LINE
  8
0
  6
CONTINUOUS
 62
     7
 10
-345.4368
 20
49.79997
 11
-344.4367
 21
51.79999
  0
LINE
  8
0
  6
CONTINUOUS
 62
     7
 10
-321.4368
 20
49.79996
 11
-322.4368
 21
51.79996
  0
LINE
  8
0
  6
CONTINUOUS
 62
     7
 10
-327.4368
 20
51.79999
 11
-327.4368
 21
49.79999
  0
LINE
  8
0
  6
CENTER
 62
     2
 10
-324.4368
 20
54.79999
 11
-324.4368
 21
45.79999
  0
LINE
  8
0
  6
CONTINUOUS
 62
     7
 10
-321.8868
 20
50.39998
 11
-326.9868
 21
50.39998
  0
LINE
  8
0
  6
CONTINUOUS
 62
     7
 10
-324.7368
 20
49.79998
 11
-324.8976
 21
50.39999
  0
LINE
  8
0
  6
CONTINUOUS
 62
     7
 10
-324.1368
 20
50.39997
 11
-323.9761
 21
49.79997
  0
LINE
  8
0
  6
CONTINUOUS
 62
     7
 10
-321.8868
 20
50.39998
 11
-321.8868
 21
49.79999
  0
LINE
  8
0
  6
CONTINUOUS
 62
     7
 10
-326.9868
 20
50.39998
 11
-326.9868
 21
49.79999
  0
LINE
  8
0
  6
CONTINUOUS
 62
     7
 10
-322.1868
 20
51.09372
 11
-322.1868
 21
50.39998
  0
LINE
  8
0
  6
CONTINUOUS
 62
     7
 10
-326.6868
 20
51.09372
 11
-326.6868
 21
50.39998
  0
LINE
  8
0
  6
CONTINUOUS
 62
     7
 10
-322.611
 20
51.79999
 11
-322.4368
 21
51.79999
  0
LINE
  8
0
  6
CENTER
 62
     2
 10
-342.4368
 20
54.79999
 11
-342.4368
 21
45.79999
  0
LINE
  8
0
  6
CONTINUOUS
 62
     7
 10
-300.9368
 20
52.59998
 11
-300.9368
 21
51.59998
  0
LINE
  8
0
  6
CONTINUOUS
 62
     7
 10
-302.4368
 20
45.59998
 11
-302.4368
 21
44.59998
  0
LINE
  8
0
  6
CONTINUOUS
 62
     7
 10
-319.9368
 20
51.09998
 11
-319.9368
 21
50.59998
  0
LINE
  8
0
  6
CONTINUOUS
 62
     7
 10
-300.9368
 20
44.59998
 11
-302.4368
 21
44.59998
  0
LINE
  8
0
  6
CONTINUOUS
 62
     7
 10
-302.4368
 20
45.59998
 11
-308.9368
 21
45.59998
  0
LINE
  8
0
  6
CONTINUOUS
 62
     7
 10
-300.9368
 20
46.99997
 11
-312.3368
 21
46.99997
  0
LINE
  8
0
  6
CONTINUOUS
 62
     7
 10
-300.9368
 20
48.79999
 11
-312.3368
 21
48.79999
  0
LINE
  8
0
  6
CONTINUOUS
 62
     7
 10
-319.4368
 20
51.59998
 11
-308.6081
 21
51.59998
  0
LINE
  8
0
  6
CONTINUOUS
 62
     7
 10
-300.9368
 20
52.59998
 11
-302.9368
 21
52.59998
  0
LINE
  8
0
  6
CONTINUOUS
 62
     7
 10
-300.9368
 20
51.59998
 11
-302.4368
 21
51.59998
  0
LINE
  8
0
  6
CONTINUOUS
 62
     7
 10
-302.9368
 20
52.59997
 11
-308.6081
 21
51.59997
  0
LINE
  8
0
  6
CONTINUOUS
 62
     7
 10
-302.4368
 20
51.59997
 11
-308.108
 21
50.59997
  0
LINE
  8
0
  6
CONTINUOUS
 62
     7
 10
-312.3368
 20
49.59998
 11
-310.4368
 21
49.59998
  0
LINE
  8
0
  6
CONTINUOUS
 62
     7
 10
-308.9368
 20
45.59998
 11
-308.9368
 21
44.59998
  0
LINE
  8
0
  6
CONTINUOUS
 62
     7
 10
-312.3368
 20
49.89998
 11
-311.7368
 21
49.89998
  0
LINE
  8
0
  6
CONTINUOUS
 62
     7
 10
-301.2368
 20
49.89996
 11
-300.9368
 21
49.59997
  0
LINE
  8
0
  6
CONTINUOUS
 62
     7
 10
-307.4368
 20
49.6
 11
-307.1368
 21
49.89999
  0
LINE
  8
0
  6
CONTINUOUS
 62
     7
 10
-311.7368
 20
49.89998
 11
-311.4368
 21
49.59999
  0
LINE
  8
0
  6
CONTINUOUS
 62
     7
 10
-307.1368
 20
49.89998
 11
-301.2368
 21
49.89998
  0
LINE
  8
0
  6
CONTINUOUS
 62
     7
 10
-308.4368
 20
50.59998
 11
-308.1081
 21
50.59998
  0
LINE
  8
0
  6
CONTINUOUS
 62
     7
 10
-308.4368
 20
49.59998
 11
-300.9368
 21
49.59998
  0
LINE
  8
0
  6
CONTINUOUS
 62
     7
 10
-300.9368
 20
49.59998
 11
-300.9368
 21
44.59998
  0
LINE
  8
0
  6
CONTINUOUS
 62
     7
 10
-311.1368
 20
46.99997
 11
-311.1368
 21
45.49997
  0
LINE
  8
0
  6
CONTINUOUS
 62
     7
 10
-311.1368
 20
45.49997
 11
-312.3368
 21
45.49997
  0
LINE
  8
0
  6
CENTER
 62
     2
 10
-303.9368
 20
48.09998
 11
-277.9368
 21
48.09998
  0
LINE
  8
0
  6
CONTINUOUS
 62
     7
 10
-300.9368
 20
47.24997
 11
-296.941
 21
47.24997
  0
LINE
  8
0
  6
CONTINUOUS
 62
     7
 10
-300.9368
 20
48.94998
 11
-296.4855
 21
48.94998
  0
LINE
  8
0
  6
CONTINUOUS
 62
     7
 10
-290.9368
 20
48.41998
 11
-280.9368
 21
48.41998
  0
LINE
  8
0
  6
CONTINUOUS
 62
     7
 10
-290.9368
 20
47.77998
 11
-280.9368
 21
47.77998
  0
LINE
  8
0
  6
CONTINUOUS
 62
     7
 10
-290.9368
 20
48.94998
 11
-290.9368
 21
47.24997
  0
LINE
  8
0
  6
CONTINUOUS
 62
     7
 10
-280.9368
 20
48.41998
 11
-280.9368
 21
47.77998
  0
LINE
  8
0
  6
PHANTOM
 62
     2
 10
-297.4769
 20
45.24995
 11
-295.9496
 21
50.94995
  0
LINE
  8
0
  6
PHANTOM
 62
     2
 10
-295.924
 20
45.24998
 11
-294.3967
 21
50.94998
  0
LINE
  8
0
  6
CONTINUOUS
 62
     7
 10
-294.9326
 20
48.94998
 11
-290.9368
 21
48.94998
  0
LINE
  8
0
  6
CONTINUOUS
 62
     7
 10
-295.3881
 20
47.24997
 11
-290.9368
 21
47.24997
  0
LINE
  8
0
  6
CONTINUOUS
 62
     7
 10
-35.43677
 20
23.60001
 11
-68.63678
 21
23.60001
  0
LINE
  8
0
  6
CONTINUOUS
 62
     7
 10
-35.43677
 20
49.60001
 11
-35.43677
 21
-28.39999
  0
LINE
  8
0
  6
CONTINUOUS
 62
     7
 10
-35.43677
 20
6.60001
 11
-59.43677
 21
6.60001
  0
LINE
  8
0
  6
CENTER
 62
     2
 10
-47.43677
 20
54.60001
 11
-47.43677
 21
-31.20001
  0
LINE
  8
0
  6
CONTINUOUS
 62
     7
 10
-59.43677
 20
50.60001
 11
-59.43677
 21
-28.39999
  0
LINE
  8
0
  6
CONTINUOUS
 62
     7
 10
-35.43677
 20
-21.39999
 11
-59.43677
 21
-21.39999
  0
LINE
  8
0
  6
CONTINUOUS
 62
     7
 10
-35.93677
 20
-28.89999
 11
-58.93677
 21
-28.89999
  0
LINE
  8
0
  6
CONTINUOUS
 62
     7
 10
-41.13676
 20
-23.89999
 11
-35.93677
 21
-23.89999
  0
LINE
  8
0
  6
CENTER
 62
     2
 10
-38.43677
 20
-22.09999
 11
-38.43677
 21
-31.54999
  0
LINE
  8
0
  6
CONTINUOUS
 62
     7
 10
-41.63676
 20
-24.39999
 11
-41.63676
 21
-28.39999
  0
LINE
  8
0
  6
CONTINUOUS
 62
     7
 10
-41.23676
 20
-25.07182
 11
-41.23676
 21
-23.89999
  0
LINE
  8
0
  6
CONTINUOUS
 62
     7
 10
-35.63676
 20
-25.07182
 11
-35.63676
 21
-23.89999
  0
LINE
  8
0
  6
CENTER
 62
     2
 10
-55.03229
 20
-16.39998
 11
-60.26233
 21
-16.39998
  0
LINE
  8
0
  6
CONTINUOUS
 62
     7
 10
-56.43677
 20
-14.58615
 11
-56.43677
 21
-18.21382
  0
LINE
  8
0
  6
CONTINUOUS
 62
     7
 10
-56.43677
 20
-14.58615
 11
-59.43677
 21
-14.58615
  0
LINE
  8
0
  6
CONTINUOUS
 62
     7
 10
-56.43677
 20
-18.21382
 11
-59.43677
 21
-18.21382
  0
LINE
  8
0
  6
CONTINUOUS
 62
     7
 10
-58.93677
 20
-28.89999
 11
-35.93677
 21
-28.89999
  0
LINE
  8
0
  6
CONTINUOUS
 62
     7
 10
-35.63676
 20
-25.07182
 11
-35.63676
 21
-23.89999
  0
LINE
  8
0
  6
CONTINUOUS
 62
     7
 10
-35.43677
 20
48.80002
 11
-59.43677
 21
48.80002
  0
LINE
  8
0
  6
CONTINUOUS
 62
     7
 10
-69.43677
 20
43.80002
 11
-69.43677
 21
24.40001
  0
LINE
  8
0
  6
CONTINUOUS
 62
     7
 10
-59.43677
 20
50.60001
 11
-70.43677
 21
50.60001
  0
LINE
  8
0
  6
CONTINUOUS
 62
     7
 10
-68.53677
 20
50.60001
 11
-68.53677
 21
44.60001
  0
LINE
  8
0
  6
CONTINUOUS
 62
     7
 10
-59.43677
 20
44.60001
 11
-71.93677
 21
44.60001
  0
LINE
  8
0
  6
CONTINUOUS
 62
     7
 10
-58.43677
 20
51.80002
 11
-40.26254
 21
51.80002
  0
LINE
  8
0
  6
CONTINUOUS
 62
     7
 10
-35.43677
 20
49.80002
 11
-59.43677
 21
49.80002
  0
LINE
  8
0
  6
CONTINUOUS
 62
     7
 10
-59.43677
 20
49.8
 11
-58.43677
 21
51.8
  0
LINE
  8
0
  6
CONTINUOUS
 62
     7
 10
-35.43677
 20
49.80001
 11
-36.43676
 21
51.8
  0
LINE
  8
0
  6
CONTINUOUS
 62
     7
 10
-41.43677
 20
51.80002
 11
-41.43677
 21
49.80002
  0
LINE
  8
0
  6
CENTER
 62
     2
 10
-38.43677
 20
54.80002
 11
-38.43677
 21
45.80002
  0
LINE
  8
0
  6
CONTINUOUS
 62
     7
 10
-35.88678
 20
50.40001
 11
-40.98676
 21
50.40001
  0
LINE
  8
0
  6
CONTINUOUS
 62
     7
 10
-38.73672
 20
49.80002
 11
-38.8975
 21
50.40002
  0
LINE
  8
0
  6
CONTINUOUS
 62
     7
 10
-38.13671
 20
50.40001
 11
-37.97594
 21
49.80001
  0
LINE
  8
0
  6
CONTINUOUS
 62
     7
 10
-35.88678
 20
50.40001
 11
-35.88678
 21
49.80002
  0
LINE
  8
0
  6
CONTINUOUS
 62
     7
 10
-40.98676
 20
50.40001
 11
-40.98676
 21
49.80002
  0
LINE
  8
0
  6
CONTINUOUS
 62
     7
 10
-36.18677
 20
51.09375
 11
-36.18677
 21
50.40001
  0
LINE
  8
0
  6
CONTINUOUS
 62
     7
 10
-40.68677
 20
51.09375
 11
-40.68677
 21
50.40001
  0
LINE
  8
0
  6
CONTINUOUS
 62
     7
 10
-36.61099
 20
51.80002
 11
-36.43677
 21
51.80002
  0
LINE
  8
0
  6
CENTER
 62
     2
 10
-56.43677
 20
54.80002
 11
-56.43677
 21
45.80002
  0
LINE
  8
0
  6
CONTINUOUS
 62
     7
 10
-79.93677
 20
52.60001
 11
-79.93677
 21
51.60001
  0
LINE
  8
0
  6
CONTINUOUS
 62
     7
 10
-78.43677
 20
45.60001
 11
-78.43677
 21
44.60001
  0
LINE
  8
0
  6
CONTINUOUS
 62
     7
 10
-60.93677
 20
51.10001
 11
-60.93677
 21
50.60001
  0
LINE
  8
0
  6
CONTINUOUS
 62
     7
 10
-79.93677
 20
44.60001
 11
-78.43677
 21
44.60001
  0
LINE
  8
0
  6
CONTINUOUS
 62
     7
 10
-78.43677
 20
45.60001
 11
-71.93677
 21
45.60001
  0
LINE
  8
0
  6
CONTINUOUS
 62
     7
 10
-79.93677
 20
47.0
 11
-68.53677
 21
47.0
  0
LINE
  8
0
  6
CONTINUOUS
 62
     7
 10
-79.93677
 20
48.80002
 11
-68.53677
 21
48.80002
  0
LINE
  8
0
  6
CONTINUOUS
 62
     7
 10
-61.43677
 20
51.60001
 11
-72.26547
 21
51.60001
  0
LINE
  8
0
  6
CONTINUOUS
 62
     7
 10
-79.93677
 20
52.60001
 11
-77.93677
 21
52.60001
  0
LINE
  8
0
  6
CONTINUOUS
 62
     7
 10
-79.93677
 20
51.60001
 11
-78.43677
 21
51.60001
  0
LINE
  8
0
  6
CONTINUOUS
 62
     7
 10
-77.93676
 20
52.60001
 11
-72.26546
 21
51.60001
  0
LINE
  8
0
  6
CONTINUOUS
 62
     7
 10
-78.43678
 20
51.60001
 11
-72.7655
 21
50.60001
  0
LINE
  8
0
  6
CONTINUOUS
 62
     7
 10
-68.53677
 20
49.60001
 11
-70.43677
 21
49.60001
  0
LINE
  8
0
  6
CONTINUOUS
 62
     7
 10
-71.93677
 20
45.60001
 11
-71.93677
 21
44.60001
  0
LINE
  8
0
  6
CONTINUOUS
 62
     7
 10
-68.53677
 20
49.90001
 11
-69.13678
 21
49.90001
  0
LINE
  8
0
  6
CONTINUOUS
 62
     7
 10
-79.63667
 20
49.89991
 11
-79.93666
 21
49.59991
  0
LINE
  8
0
  6
CONTINUOUS
 62
     7
 10
-73.43681
 20
49.59996
 11
-73.73681
 21
49.89995
  0
LINE
  8
0
  6
CONTINUOUS
 62
     7
 10
-69.13679
 20
49.90004
 11
-69.43678
 21
49.60004
  0
LINE
  8
0
  6
CONTINUOUS
 62
     7
 10
-73.73676
 20
49.90001
 11
-79.63678
 21
49.90001
  0
LINE
  8
0
  6
CONTINUOUS
 62
     7
 10
-72.43677
 20
50.60001
 11
-72.76547
 21
50.60001
  0
LINE
  8
0
  6
CONTINUOUS
 62
     7
 10
-72.43677
 20
49.60001
 11
-79.93677
 21
49.60001
  0
LINE
  8
0
  6
CONTINUOUS
 62
     7
 10
-79.93677
 20
49.60001
 11
-79.93677
 21
44.60001
  0
LINE
  8
0
  6
CONTINUOUS
 62
     7
 10
-69.73676
 20
47.0
 11
-69.73676
 21
45.5
  0
LINE
  8
0
  6
CONTINUOUS
 62
     7
 10
-69.73676
 20
45.5
 11
-68.53677
 21
45.5
  0
LINE
  8
0
  6
CENTER
 62
     2
 10
-76.93677
 20
48.10001
 11
-102.9368
 21
48.10001
  0
LINE
  8
0
  6
CONTINUOUS
 62
     7
 10
-79.93677
 20
47.25
 11
-84.38806
 21
47.25
  0
LINE
  8
0
  6
CONTINUOUS
 62
     7
 10
-79.93677
 20
48.95001
 11
-83.93256
 21
48.95001
  0
LINE
  8
0
  6
CONTINUOUS
 62
     7
 10
-89.93677
 20
48.42001
 11
-99.93677
 21
48.42001
  0
LINE
  8
0
  6
CONTINUOUS
 62
     7
 10
-89.93677
 20
47.78001
 11
-99.93677
 21
47.78001
  0
LINE
  8
0
  6
CONTINUOUS
 62
     7
 10
-89.93677
 20
48.95001
 11
-89.93677
 21
47.25
  0
LINE
  8
0
  6
CONTINUOUS
 62
     7
 10
-99.93677
 20
48.42001
 11
-99.93677
 21
47.78001
  0
LINE
  8
0
  6
PHANTOM
 62
     2
 10
-83.39668
 20
50.95002
 11
-84.92399
 21
45.25002
  0
LINE
  8
0
  6
PHANTOM
 62
     2
 10
-84.94958
 20
50.95002
 11
-86.4769
 21
45.25
  0
LINE
  8
0
  6
CONTINUOUS
 62
     7
 10
-85.94098
 20
47.25
 11
-89.93677
 21
47.25
  0
LINE
  8
0
  6
CONTINUOUS
 62
     7
 10
-85.48547
 20
48.95001
 11
-89.93677
 21
48.95001
  0
LINE
  8
0
  6
CONTINUOUS
 62
     7
 10
-197.4368
 20
-161.5999
 11
-194.4368
 21
-161.5999
  0
LINE
  8
0
  6
CONTINUOUS
 62
     7
 10
-185.4368
 20
-173.2
 11
-182.4368
 21
-173.2
  0
LINE
  8
0
  6
CONTINUOUS
 62
     7
 10
-191.2368
 20
-158.3999
 11
-191.2368
 21
-155.3999
  0
LINE
  8
0
  6
CONTINUOUS
 62
     7
 10
-188.6367
 20
-176.3999
 11
-188.6367
 21
-179.3999
  0
LINE
  8
0
  6
CENTER
 62
     2
 10
-198.9368
 20
-167.3999
 11
-180.9368
 21
-167.3999
  0
LINE
  8
0
  6
CENTER
 62
     2
 10
-189.9368
 20
-132.6448
 11
-189.9368
 21
-181.3999
  0
LINE
  8
0
  6
CONTINUOUS
 62
     7
 10
-196.4368
 20
-165.3999
 11
-183.4368
 21
-165.3999
  0
LINE
  8
0
  6
CONTINUOUS
 62
     7
 10
-196.4368
 20
-169.3999
 11
-183.4368
 21
-169.3999
  0
LINE
  8
0
  6
CONTINUOUS
 62
     7
 10
-183.4368
 20
-165.3999
 11
-183.4368
 21
-169.3999
  0
LINE
  8
0
  6
CONTINUOUS
 62
     7
 10
-196.4368
 20
-165.3999
 11
-196.4368
 21
-169.3999
  0
LINE
  8
0
  6
CONTINUOUS
 62
     7
 10
-195.7247
 20
-168.3698
 11
-193.7365
 21
-168.3698
  0
LINE
  8
0
  6
CONTINUOUS
 62
     7
 10
-195.7247
 20
-168.8999
 11
-193.0296
 21
-168.8999
  0
LINE
  8
0
  6
CONTINUOUS
 62
     7
 10
-195.7247
 20
-166.8233
 11
-193.7365
 21
-166.8233
  0
LINE
  8
0
  6
CONTINUOUS
 62
     7
 10
-195.7247
 20
-166.2932
 11
-195.7247
 21
-166.8233
  0
LINE
  8
0
  6
CONTINUOUS
 62
     7
 10
-193.0296
 20
-166.6466
 11
-193.0296
 21
-168.8999
  0
LINE
  8
0
  6
CONTINUOUS
 62
     7
 10
-193.7365
 20
-166.8233
 11
-193.7365
 21
-168.3698
  0
LINE
  8
0
  6
CONTINUOUS
 62
     7
 10
-192.6319
 20
-166.2932
 11
-192.6319
 21
-166.8233
  0
LINE
  8
0
  6
CONTINUOUS
 62
     7
 10
-190.1135
 20
-166.8233
 11
-190.1135
 21
-168.5465
  0
LINE
  8
0
  6
CONTINUOUS
 62
     7
 10
-190.8204
 20
-166.8233
 11
-190.8204
 21
-168.3698
  0
LINE
  8
0
  6
CONTINUOUS
 62
     7
 10
-195.7247
 20
-168.3698
 11
-195.7247
 21
-168.8999
  0
LINE
  8
0
  6
CONTINUOUS
 62
     7
 10
-192.6319
 20
-166.2932
 11
-191.9334
 21
-166.2932
  0
LINE
  8
0
  6
CONTINUOUS
 62
     7
 10
-192.6319
 20
-168.8999
 11
-192.083
 21
-168.8999
  0
LINE
  8
0
  6
CONTINUOUS
 62
     7
 10
-192.6319
 20
-168.9
 11
-192.0755
 21
-166.8234
  0
LINE
  8
0
  6
CONTINUOUS
 62
     7
 10
-192.6319
 20
-166.8233
 11
-192.0755
 21
-166.8233
  0
LINE
  8
0
  6
CONTINUOUS
 62
     7
 10
-192.083
 20
-168.9
 11
-191.5266
 21
-166.8234
  0
LINE
  8
0
  6
CONTINUOUS
 62
     7
 10
-191.3506
 20
-168.3698
 11
-190.8204
 21
-168.3698
  0
LINE
  8
0
  6
CONTINUOUS
 62
     7
 10
-191.3506
 20
-168.3697
 11
-191.2085
 21
-168.8999
  0
LINE
  8
0
  6
CONTINUOUS
 62
     7
 10
-191.2086
 20
-168.8999
 11
-190.467
 21
-168.8999
  0
LINE
  8
0
  6
CONTINUOUS
 62
     7
 10
-191.5266
 20
-166.8233
 11
-190.8204
 21
-166.8233
  0
LINE
  8
0
  6
CONTINUOUS
 62
     7
 10
-191.3846
 20
-166.2932
 11
-190.6437
 21
-166.2932
  0
LINE
  8
0
  6
CONTINUOUS
 62
     7
 10
-191.9334
 20
-166.2932
 11
-191.828
 21
-165.8999
  0
LINE
  8
0
  6
CONTINUOUS
 62
     7
 10
-191.3846
 20
-166.2931
 11
-191.2792
 21
-165.8999
  0
LINE
  8
0
  6
CONTINUOUS
 62
     7
 10
-189.6717
 20
-166.2932
 11
-188.8322
 21
-166.2932
  0
LINE
  8
0
  6
CONTINUOUS
 62
     7
 10
-189.6717
 20
-166.8233
 11
-187.61
 21
-166.8233
  0
LINE
  8
0
  6
CONTINUOUS
 62
     7
 10
-188.8322
 20
-168.8999
 11
-188.1253
 21
-168.8999
  0
LINE
  8
0
  6
CONTINUOUS
 62
     7
 10
-189.6717
 20
-166.2932
 11
-189.6717
 21
-166.8233
  0
LINE
  8
0
  6
CONTINUOUS
 62
     7
 10
-187.0649
 20
-167.7847
 11
-187.0649
 21
-168.3698
  0
LINE
  8
0
  6
CONTINUOUS
 62
     7
 10
-189.6717
 20
-168.3699
 11
-188.8322
 21
-167.9784
  0
LINE
  8
0
  6
CONTINUOUS
 62
     7
 10
-189.6717
 20
-167.7848
 11
-187.61
 21
-166.8234
  0
LINE
  8
0
  6
CONTINUOUS
 62
     7
 10
-189.6717
 20
-167.7847
 11
-189.6717
 21
-168.3698
  0
LINE
  8
0
  6
CONTINUOUS
 62
     7
 10
-188.1253
 20
-167.8752
 11
-187.0649
 21
-168.3697
  0
LINE
  8
0
  6
CONTINUOUS
 62
     7
 10
-187.7409
 20
-167.4694
 11
-187.0648
 21
-167.7847
  0
LINE
  8
0
  6
CONTINUOUS
 62
     7
 10
-187.0649
 20
-166.6466
 11
-187.0649
 21
-166.929
  0
LINE
  8
0
  6
CONTINUOUS
 62
     7
 10
-188.8322
 20
-165.8999
 11
-188.8322
 21
-166.2932
  0
LINE
  8
0
  6
CONTINUOUS
 62
     7
 10
-188.1253
 20
-165.8999
 11
-188.1253
 21
-166.2932
  0
LINE
  8
0
  6
CONTINUOUS
 62
     7
 10
-188.1253
 20
-166.2932
 11
-187.4184
 21
-166.2932
  0
LINE
  8
0
  6
CONTINUOUS
 62
     7
 10
-188.8322
 20
-167.9783
 11
-188.8322
 21
-168.8999
  0
LINE
  8
0
  6
CONTINUOUS
 62
     7
 10
-188.1253
 20
-167.8753
 11
-188.1253
 21
-168.8999
  0
LINE
  8
0
  6
CONTINUOUS
 62
     7
 10
-187.741
 20
-167.4695
 11
-187.2689
 21
-167.2494
  0
LINE
  8
0
  6
CONTINUOUS
 62
     7
 10
-184.679
 20
-166.059
 11
-184.1489
 21
-166.059
  0
LINE
  8
0
  6
CONTINUOUS
 62
     7
 10
-186.844
 20
-167.1542
 11
-186.844
 21
-167.7248
  0
LINE
  8
0
  6
CONTINUOUS
 62
     7
 10
-184.1489
 20
-166.059
 11
-184.1489
 21
-166.2932
  0
LINE
  8
0
  6
CONTINUOUS
 62
     7
 10
-184.679
 20
-166.059
 11
-184.679
 21
-166.1732
  0
LINE
  8
0
  6
CONTINUOUS
 62
     7
 10
-185.386
 20
-167.1449
 11
-185.386
 21
-168.8999
  0
LINE
  8
0
  6
CONTINUOUS
 62
     7
 10
-186.8439
 20
-167.1542
 11
-184.7904
 21
-166.3375
  0
LINE
  8
0
  6
CONTINUOUS
 62
     7
 10
-186.844
 20
-167.7247
 11
-185.3859
 21
-167.1449
  0
LINE
  8
0
  6
CONTINUOUS
 62
     7
 10
-185.386
 20
-168.8999
 11
-184.679
 21
-168.8999
  0
LINE
  8
0
  6
CONTINUOUS
 62
     7
 10
-184.679
 20
-166.8637
 11
-184.679
 21
-168.8999
  0
LINE
  8
0
  6
CONTINUOUS
 62
     7
 10
-184.679
 20
-166.8638
 11
-184.4831
 21
-166.7858
  0
LINE
  8
0
  6
CONTINUOUS
 62
     7
 10
-191.8281
 20
-165.8999
 11
-191.2792
 21
-165.8999
  0
LINE
  8
0
  6
CONTINUOUS
 62
     7
 10
-190.4007
 20
-165.8999
 11
-190.1747
 21
-165.8999
  0
LINE
  8
0
  6
CONTINUOUS
 62
     7
 10
-188.8322
 20
-165.8999
 11
-188.1253
 21
-165.8999
  0
LINE
  8
0
  6
CONTINUOUS
 62
     7
 10
-190.4007
 20
-166.2534
 11
-190.1747
 21
-166.2534
  0
LINE
  8
0
  6
CONTINUOUS
 62
     7
 10
-190.4007
 20
-165.8999
 11
-190.4007
 21
-166.2534
  0
LINE
  8
0
  6
CONTINUOUS
 62
     7
 10
-190.1747
 20
-165.8999
 11
-190.1747
 21
-166.2534
  0
LINE
  8
0
  6
CONTINUOUS
 62
     7
 10
-190.0169
 20
-165.8999
 11
-190.0169
 21
-166.2534
  0
LINE
  8
0
  6
CONTINUOUS
 62
     7
 10
-189.791
 20
-165.8999
 11
-189.791
 21
-166.2534
  0
LINE
  8
0
  6
CONTINUOUS
 62
     7
 10
-190.017
 20
-165.8999
 11
-189.791
 21
-165.8999
  0
LINE
  8
0
  6
CONTINUOUS
 62
     7
 10
-190.017
 20
-166.2534
 11
-189.791
 21
-166.2534
  0
LINE
  8
0
  6
CONTINUOUS
 62
     7
 10
-182.4368
 20
-178.8999
 11
-182.4368
 21
-155.3999
  0
LINE
  8
0
  6
CONTINUOUS
 62
     7
 10
-197.4368
 20
-178.8999
 11
-197.4368
 21
-155.3999
  0
LINE
  8
0
  6
CONTINUOUS
 62
     7
 10
-196.9368
 20
-179.3999
 11
-182.9368
 21
-179.3999
  0
LINE
  8
0
  6
CONTINUOUS
 62
     7
 10
-197.4368
 20
-155.3999
 11
-182.4368
 21
-155.3999
  0
LINE
  8
0
  6
CONTINUOUS
 62
     7
 10
-195.7247
 20
-166.2932
 11
-193.3831
 21
-166.2932
  0
LINE
  8
0
  6
CONTINUOUS
 62
     7
 10
-190.1135
 20
-166.8233
 11
-190.1135
 21
-168.5465
  0
LINE
  8
0
  6
CONTINUOUS
 62
     7
 10
-191.2086
 20
-168.8999
 11
-190.467
 21
-168.8999
  0
LINE
  8
0
  6
CONTINUOUS
 62
     7
 10
-191.3846
 20
-166.2932
 11
-190.6437
 21
-166.2932
  0
LINE
  8
0
  6
CONTINUOUS
 62
     7
 10
-187.0649
 20
-166.6466
 11
-187.0649
 21
-166.929
  0
LINE
  8
0
  6
CONTINUOUS
 62
     7
 10
-184.679
 20
-166.059
 11
-184.1489
 21
-166.059
  0
LINE
  8
0
  6
CONTINUOUS
 62
     7
 10
-184.1489
 20
-166.059
 11
-184.1489
 21
-166.2932
  0
LINE
  8
0
  6
CONTINUOUS
 62
     7
 10
-184.679
 20
-166.059
 11
-184.679
 21
-166.1732
  0
LINE
  8
0
  6
CONTINUOUS
 62
     7
 10
-186.8439
 20
-167.1542
 11
-184.7904
 21
-166.3375
  0
LINE
  8
0
  6
CONTINUOUS
 62
     7
 10
-184.679
 20
-166.8637
 11
-184.679
 21
-168.8999
  0
LINE
  8
0
  6
CONTINUOUS
 62
     7
 10
-184.6791
 20
-166.8636
 11
-184.4831
 21
-166.7857
  0
LINE
  8
0
  6
CENTER
 62
     2
 10
-194.4368
 20
-162.5789
 11
-194.4368
 21
-154.232
  0
LINE
  8
0
  6
CENTER
 62
     2
 10
-198.4691
 20
-158.3999
 11
-190.527
 21
-158.3999
  0
LINE
  8
0
  6
CONTINUOUS
 62
     7
 10
-195.2853
 20
-159.6727
 11
-195.7096
 21
-159.2485
  0
LINE
  8
0
  6
CONTINUOUS
 62
     7
 10
-193.164
 20
-157.5514
 11
-193.5882
 21
-157.1272
  0
LINE
  8
0
  6
CONTINUOUS
 62
     7
 10
-193.5882
 20
-159.6727
 11
-194.0125
 21
-159.2484
  0
LINE
  8
0
  6
CONTINUOUS
 62
     7
 10
-193.1639
 20
-159.2485
 11
-193.5882
 21
-158.8242
  0
LINE
  8
0
  6
CONTINUOUS
 62
     7
 10
-193.5882
 20
-159.6727
 11
-193.164
 21
-159.2484
  0
LINE
  8
0
  6
CONTINUOUS
 62
     7
 10
-195.7095
 20
-157.5514
 11
-195.2853
 21
-157.1272
  0
LINE
  8
0
  6
CONTINUOUS
 62
     7
 10
-195.2853
 20
-159.6727
 11
-194.861
 21
-159.2485
  0
LINE
  8
0
  6
CONTINUOUS
 62
     7
 10
-195.7095
 20
-159.2485
 11
-195.2852
 21
-158.8243
  0
LINE
  8
0
  6
CONTINUOUS
 62
     7
 10
-195.2853
 20
-157.9757
 11
-195.7096
 21
-157.5514
  0
LINE
  8
0
  6
CONTINUOUS
 62
     7
 10
-194.861
 20
-157.5514
 11
-195.2853
 21
-157.1272
  0
LINE
  8
0
  6
CONTINUOUS
 62
     7
 10
-193.5882
 20
-157.9757
 11
-193.1639
 21
-157.5514
  0
LINE
  8
0
  6
CONTINUOUS
 62
     7
 10
-194.0125
 20
-157.5515
 11
-193.5882
 21
-157.1272
  0
LINE
  8
0
  6
CENTER
 62
     2
 10
-185.4368
 20
-180.5789
 11
-185.4368
 21
-172.232
  0
LINE
  8
0
  6
CENTER
 62
     2
 10
-189.4691
 20
-176.3999
 11
-181.5271
 21
-176.3999
  0
LINE
  8
0
  6
CONTINUOUS
 62
     7
 10
-186.2853
 20
-177.6728
 11
-186.7096
 21
-177.2485
  0
LINE
  8
0
  6
CONTINUOUS
 62
     7
 10
-184.164
 20
-175.5514
 11
-184.5883
 21
-175.1271
  0
LINE
  8
0
  6
CONTINUOUS
 62
     7
 10
-184.5882
 20
-177.6727
 11
-185.0125
 21
-177.2484
  0
LINE
  8
0
  6
CONTINUOUS
 62
     7
 10
-184.164
 20
-177.2485
 11
-184.5883
 21
-176.8242
  0
LINE
  8
0
  6
CONTINUOUS
 62
     7
 10
-184.5882
 20
-177.6727
 11
-184.1639
 21
-177.2485
  0
LINE
  8
0
  6
CONTINUOUS
 62
     7
 10
-186.7095
 20
-175.5514
 11
-186.2853
 21
-175.1272
  0
LINE
  8
0
  6
CONTINUOUS
 62
     7
 10
-186.2853
 20
-177.6727
 11
-185.861
 21
-177.2485
  0
LINE
  8
0
  6
CONTINUOUS
 62
     7
 10
-186.7095
 20
-177.2486
 11
-186.2852
 21
-176.8243
  0
LINE
  8
0
  6
CONTINUOUS
 62
     7
 10
-186.2853
 20
-175.9757
 11
-186.7095
 21
-175.5514
  0
LINE
  8
0
  6
CONTINUOUS
 62
     7
 10
-185.8611
 20
-175.5514
 11
-186.2853
 21
-175.1272
  0
LINE
  8
0
  6
CONTINUOUS
 62
     7
 10
-184.5882
 20
-175.9757
 11
-184.164
 21
-175.5514
  0
LINE
  8
0
  6
CONTINUOUS
 62
     7
 10
-185.0125
 20
-175.5515
 11
-184.5882
 21
-175.1272
  0
LINE
  8
0
  6
CONTINUOUS
 62
     7
 10
-196.9368
 20
-155.3999
 11
-196.9368
 21
-146.2
  0
LINE
  8
0
  6
CONTINUOUS
 62
     7
 10
-196.1368
 20
-145.3999
 11
-183.7368
 21
-145.3999
  0
LINE
  8
0
  6
CONTINUOUS
 62
     7
 10
-182.9368
 20
-155.3999
 11
-182.9368
 21
-146.2
  0
LINE
  8
0
  6
CONTINUOUS
 62
     7
 10
-195.4368
 20
-134.8999
 11
-184.4368
 21
-134.8999
  0
LINE
  8
0
  6
CONTINUOUS
 62
     7
 10
-185.9368
 20
-145.3999
 11
-185.9368
 21
-134.8999
  0
LINE
  8
0
  6
CONTINUOUS
 62
     7
 10
-193.9368
 20
-145.3999
 11
-193.9368
 21
-134.8999
  0
LINE
  8
0
  6
CONTINUOUS
 62
     7
 10
-195.4368
 20
-145.3999
 11
-195.4368
 21
-134.8999
  0
LINE
  8
0
  6
CONTINUOUS
 62
     7
 10
-184.4368
 20
-145.3999
 11
-184.4368
 21
-134.8999
  0
LINE
  8
0
  6
CENTER
 62
     2
 10
-192.4368
 20
-137.8999
 11
-192.4368
 21
-111.9
  0
LINE
  8
0
  6
CENTER
 62
     2
 10
-187.4368
 20
-137.8999
 11
-187.4368
 21
-111.9
  0
LINE
  8
0
  6
CONTINUOUS
 62
     7
 10
-193.2868
 20
-124.8999
 11
-191.5868
 21
-124.8999
  0
LINE
  8
0
  6
CONTINUOUS
 62
     7
 10
-192.7568
 20
-114.9
 11
-192.1168
 21
-114.9
  0
LINE
  8
0
  6
CONTINUOUS
 62
     7
 10
-187.1168
 20
-124.8999
 11
-187.1168
 21
-114.9
  0
LINE
  8
0
  6
CONTINUOUS
 62
     7
 10
-187.7568
 20
-124.8999
 11
-187.7568
 21
-114.9
  0
LINE
  8
0
  6
CONTINUOUS
 62
     7
 10
-192.1168
 20
-124.8999
 11
-192.1168
 21
-114.9
  0
LINE
  8
0
  6
CONTINUOUS
 62
     7
 10
-192.7568
 20
-124.8999
 11
-192.7568
 21
-114.9
  0
LINE
  8
0
  6
CONTINUOUS
 62
     7
 10
-191.5868
 20
-134.8999
 11
-191.5868
 21
-130.2343
  0
LINE
  8
0
  6
CONTINUOUS
 62
     7
 10
-193.2868
 20
-134.8999
 11
-193.2868
 21
-129.7788
  0
LINE
  8
0
  6
CONTINUOUS
 62
     7
 10
-188.2868
 20
-134.8999
 11
-188.2868
 21
-131.1185
  0
LINE
  8
0
  6
CONTINUOUS
 62
     7
 10
-186.5868
 20
-134.8999
 11
-186.5868
 21
-131.574
  0
LINE
  8
0
  6
CONTINUOUS
 62
     7
 10
-188.2868
 20
-124.8999
 11
-186.5868
 21
-124.8999
  0
LINE
  8
0
  6
CONTINUOUS
 62
     7
 10
-187.7568
 20
-114.9
 11
-187.1168
 21
-114.9
  0
LINE
  8
0
  6
CONTINUOUS
 62
     7
 10
-193.9368
 20
-136.3999
 11
-185.9368
 21
-136.3999
  0
LINE
  8
0
  6
CONTINUOUS
 62
     7
 10
-193.9368
 20
-142.8999
 11
-185.9368
 21
-142.8999
  0
LINE
  8
0
  6
PHANTOM
 62
     2
 10
-184.5868
 20
-130.557
 11
-195.2868
 21
-127.69
  0
LINE
  8
0
  6
PHANTOM
 62
     2
 10
-184.5868
 20
-132.1099
 11
-195.2868
 21
-129.2429
  0
LINE
  8
0
  6
CONTINUOUS
 62
     7
 10
-193.2868
 20
-128.2259
 11
-193.2868
 21
-124.8999
  0
LINE
  8
0
  6
CONTINUOUS
 62
     7
 10
-191.5868
 20
-128.6814
 11
-191.5868
 21
-124.8999
  0
LINE
  8
0
  6
CONTINUOUS
 62
     7
 10
-188.2868
 20
-129.5656
 11
-188.2868
 21
-124.8999
  0
LINE
  8
0
  6
CONTINUOUS
 62
     7
 10
-186.5868
 20
-130.0211
 11
-186.5868
 21
-124.8999
  0
LINE
  8
0
  6
CONTINUOUS
 62
     7
 10
170.4368
 20
48.2
 11
170.4368
 21
-30.0
  0
LINE
  8
0
  6
CONTINUOUS
 62
     7
 10
185.4368
 20
48.2
 11
185.4368
 21
-30.0
  0
LINE
  8
0
  6
CONTINUOUS
 62
     7
 10
170.4368
 20
22.0
 11
185.4368
 21
22.0
  0
LINE
  8
0
  6
CONTINUOUS
 62
     7
 10
170.4368
 20
5.0
 11
185.4368
 21
5.0
  0
LINE
  8
0
  6
CENTER
 62
     2
 10
177.9368
 20
52.2
 11
177.9368
 21
-32.49852
  0
LINE
  8
0
  6
CENTER
 62
     2
 10
175.5518
 20
18.5
 11
180.3984
 21
18.5
  0
LINE
  8
0
  6
CONTINUOUS
 62
     7
 10
170.4368
 20
-23.0
 11
185.4368
 21
-23.0
  0
LINE
  8
0
  6
CONTINUOUS
 62
     7
 10
170.9368
 20
-30.5
 11
184.9368
 21
-30.5
  0
LINE
  8
0
  6
CONTINUOUS
 62
     7
 10
170.9368
 20
-25.5
 11
176.1368
 21
-25.5
  0
LINE
  8
0
  6
CENTER
 62
     2
 10
173.4368
 20
-24.14999
 11
173.4368
 21
-32.49852
  0
LINE
  8
0
  6
CONTINUOUS
 62
     7
 10
176.6368
 20
-26.0
 11
176.6368
 21
-30.0
  0
LINE
  8
0
  6
CENTER
 62
     2
 10
169.866
 20
0.0
 11
175.9748
 21
0.0
  0
LINE
  8
0
  6
CENTER
 62
     2
 10
180.1682
 20
-18.0
 11
186.0182
 21
-18.0
  0
LINE
  8
0
  6
CENTER
 62
     2
 10
183.4368
 20
-14.47301
 11
183.4368
 21
-21.41017
  0
LINE
  8
0
  6
CENTER
 62
     2
 10
172.4368
 20
3.43938
 11
172.4368
 21
-3.34248
  0
LINE
  8
0
  6
CONTINUOUS
 62
     7
 10
170.6368
 20
-26.67183
 11
170.6368
 21
-25.5
  0
LINE
  8
0
  6
CONTINUOUS
 62
     7
 10
176.2368
 20
-26.67183
 11
176.2368
 21
-25.5
  0
LINE
  8
0
  6
CONTINUOUS
 62
     7
 10
170.4368
 20
47.2
 11
170.9368
 21
47.2
  0
LINE
  8
0
  6
CONTINUOUS
 62
     7
 10
184.9368
 20
49.0
 11
184.9368
 21
43.0
  0
LINE
  8
0
  6
CONTINUOUS
 62
     7
 10
170.9368
 20
49.0
 11
170.9368
 21
43.0
  0
LINE
  8
0
  6
CONTINUOUS
 62
     7
 10
170.9368
 20
49.0
 11
184.9368
 21
49.0
  0
LINE
  8
0
  6
CONTINUOUS
 62
     7
 10
170.9368
 20
43.0
 11
184.9368
 21
43.0
  0
LINE
  8
0
  6
CONTINUOUS
 62
     7
 10
184.9368
 20
47.2
 11
185.4368
 21
47.2
  0
LINE
  8
0
  6
CONTINUOUS
 62
     7
 10
170.9368
 20
42.2
 11
170.9368
 21
22.8
  0
LINE
  8
0
  6
CONTINUOUS
 62
     7
 10
184.9368
 20
42.2
 11
184.9368
 21
22.8
  0
LINE
  8
0
  6
CONTINUOUS
 62
     7
 10
172.4368
 20
23.5
 11
183.4368
 21
23.5
  0
LINE
  8
0
  6
CONTINUOUS
 62
     7
 10
172.4368
 20
32.0
 11
183.4368
 21
32.0
  0
LINE
  8
0
  6
CONTINUOUS
 62
     7
 10
172.4368
 20
32.0
 11
172.4368
 21
23.5
  0
LINE
  8
0
  6
CONTINUOUS
 62
     7
 10
183.4368
 20
32.0
 11
183.4368
 21
23.5
  0
LINE
  8
0
  6
CONTINUOUS
 62
     7
 10
175.9368
 20
35.5
 11
179.9368
 21
35.5
  0
LINE
  8
0
  6
CONTINUOUS
 62
     7
 10
175.9368
 20
33.5
 11
179.9368
 21
33.5
  0
LINE
  8
0
  6
CONTINUOUS
 62
     7
 10
175.9368
 20
35.5
 11
175.9368
 21
33.5
  0
LINE
  8
0
  6
CONTINUOUS
 62
     7
 10
179.9368
 20
35.5
 11
179.9368
 21
33.5
  0
LINE
  8
0
  6
CONTINUOUS
 62
     7
 10
175.4368
 20
36.0
 11
180.4368
 21
36.0
  0
LINE
  8
0
  6
CONTINUOUS
 62
     7
 10
175.4368
 20
36.0
 11
175.4368
 21
33.0
  0
LINE
  8
0
  6
CONTINUOUS
 62
     7
 10
175.4368
 20
33.0
 11
180.4368
 21
33.0
  0
LINE
  8
0
  6
CONTINUOUS
 62
     7
 10
180.4368
 20
36.0
 11
180.4368
 21
33.0
  0
LINE
  8
0
  6
CONTINUOUS
 62
     7
 10
175.9368
 20
35.49996
 11
175.4368
 21
35.99997
  0
LINE
  8
0
  6
CONTINUOUS
 62
     7
 10
179.9368
 20
35.50002
 11
180.4368
 21
36.00002
  0
LINE
  8
0
  6
CONTINUOUS
 62
     7
 10
179.9368
 20
33.49998
 11
180.4368
 21
32.99997
  0
LINE
  8
0
  6
CONTINUOUS
 62
     7
 10
175.9368
 20
33.50002
 11
175.4368
 21
33.00002
  0
LINE
  8
0
  6
CONTINUOUS
 62
     7
 10
171.4368
 20
50.2
 11
171.611
 21
50.2
  0
LINE
  8
0
  6
CONTINUOUS
 62
     7
 10
170.4368
 20
48.2
 11
170.9368
 21
48.2
  0
LINE
  8
0
  6
CONTINUOUS
 62
     7
 10
170.4368
 20
48.20001
 11
171.4368
 21
50.20001
  0
LINE
  8
0
  6
CONTINUOUS
 62
     7
 10
185.4368
 20
48.19998
 11
184.4367
 21
50.19999
  0
LINE
  8
0
  6
CENTER
 62
     2
 10
173.4368
 20
53.2
 11
173.4368
 21
44.2
  0
LINE
  8
0
  6
CONTINUOUS
 62
     7
 10
170.9368
 20
48.8
 11
170.8867
 21
48.8
  0
LINE
  8
0
  6
CONTINUOUS
 62
     7
 10
170.8868
 20
48.8
 11
170.8868
 21
48.2
  0
LINE
  8
0
  6
CONTINUOUS
 62
     7
 10
184.9368
 20
48.2
 11
185.4368
 21
48.2
  0
LINE
  8
0
  6
CONTINUOUS
 62
     7
 10
171.1868
 20
49.49374
 11
171.1868
 21
49.0
  0
LINE
  8
0
  6
CONTINUOUS
 62
     7
 10
172.2368
 20
45.40001
 11
173.9368
 21
45.40001
  0
LINE
  8
0
  6
CONTINUOUS
 62
     7
 10
172.2368
 20
47.40001
 11
173.7368
 21
47.40001
  0
LINE
  8
0
  6
CONTINUOUS
 62
     7
 10
182.1368
 20
49.0
 11
182.1368
 21
47.40001
  0
LINE
  8
0
  6
CONTINUOUS
 62
     7
 10
173.7368
 20
49.0
 11
173.7368
 21
47.40001
  0
LINE
  8
0
  6
CONTINUOUS
 62
     7
 10
183.6368
 20
47.40001
 11
183.6368
 21
45.40001
  0
LINE
  8
0
  6
CONTINUOUS
 62
     7
 10
172.2368
 20
47.40001
 11
172.2368
 21
45.40001
  0
LINE
  8
0
  6
CONTINUOUS
 62
     7
 10
173.7368
 20
45.40001
 11
173.7368
 21
43.0
  0
LINE
  8
0
  6
CONTINUOUS
 62
     7
 10
182.1368
 20
45.40001
 11
182.1368
 21
43.0
  0
LINE
  8
0
  6
CONTINUOUS
 62
     7
 10
182.1368
 20
47.40001
 11
183.6368
 21
47.40001
  0
LINE
  8
0
  6
CONTINUOUS
 62
     7
 10
181.9368
 20
45.40001
 11
183.6368
 21
45.40001
  0
LINE
  8
0
  6
CENTER
 62
     2
 10
182.4368
 20
53.2
 11
182.4368
 21
44.2
  0
LINE
  8
0
  6
CONTINUOUS
 62
     7
 10
172.4368
 20
47.2
 11
173.9368
 21
47.2
  0
LINE
  8
0
  6
CONTINUOUS
 62
     7
 10
173.9368
 20
50.0
 11
181.9368
 21
50.0
  0
LINE
  8
0
  6
CONTINUOUS
 62
     7
 10
172.4368
 20
47.2
 11
172.4368
 21
45.40001
  0
LINE
  8
0
  6
CONTINUOUS
 62
     7
 10
183.4368
 20
47.2
 11
183.4368
 21
45.40001
  0
LINE
  8
0
  6
CONTINUOUS
 62
     7
 10
173.9367
 20
48.00006
 11
174.2367
 21
48.30005
  0
LINE
  8
0
  6
CONTINUOUS
 62
     7
 10
181.9366
 20
47.99993
 11
181.6366
 21
48.29992
  0
LINE
  8
0
  6
CONTINUOUS
 62
     7
 10
173.9368
 20
45.40001
 11
173.9368
 21
43.0
  0
LINE
  8
0
  6
CONTINUOUS
 62
     7
 10
181.9368
 20
45.40001
 11
181.9368
 21
43.0
  0
LINE
  8
0
  6
CONTINUOUS
 62
     7
 10
181.9368
 20
47.2
 11
183.4368
 21
47.2
  0
LINE
  8
0
  6
CENTER
 62
     2
 10
173.9868
 20
46.5
 11
181.8868
 21
46.5
  0
LINE
  8
0
  6
CENTER
 62
     2
 10
175.4368
 20
47.85001
 11
175.4368
 21
45.05
  0
LINE
  8
0
  6
CENTER
 62
     2
 10
180.4368
 20
47.85001
 11
180.4368
 21
45.05
  0
LINE
  8
0
  6
CONTINUOUS
 62
     7
 10
174.4868
 20
47.45
 11
176.3868
 21
47.45
  0
LINE
  8
0
  6
CONTINUOUS
 62
     7
 10
174.4868
 20
45.55
 11
176.3868
 21
45.55
  0
LINE
  8
0
  6
CONTINUOUS
 62
     7
 10
174.4868
 20
47.65001
 11
174.4868
 21
45.55
  0
LINE
  8
0
  6
CONTINUOUS
 62
     7
 10
176.3868
 20
47.65001
 11
176.3868
 21
45.55
  0
LINE
  8
0
  6
CONTINUOUS
 62
     7
 10
176.9868
 20
47.65001
 11
176.9868
 21
45.55
  0
LINE
  8
0
  6
CONTINUOUS
 62
     7
 10
178.8868
 20
47.65001
 11
178.8868
 21
45.55
  0
LINE
  8
0
  6
CONTINUOUS
 62
     7
 10
181.3868
 20
47.65001
 11
181.3868
 21
45.55
  0
LINE
  8
0
  6
CONTINUOUS
 62
     7
 10
179.4868
 20
47.65001
 11
179.4868
 21
45.55
  0
LINE
  8
0
  6
CONTINUOUS
 62
     7
 10
176.9868
 20
47.45
 11
178.8868
 21
47.45
  0
LINE
  8
0
  6
CONTINUOUS
 62
     7
 10
176.9868
 20
45.55
 11
178.8868
 21
45.55
  0
LINE
  8
0
  6
CONTINUOUS
 62
     7
 10
179.4868
 20
45.55
 11
181.3868
 21
45.55
  0
LINE
  8
0
  6
CONTINUOUS
 62
     7
 10
179.4868
 20
47.45
 11
181.3868
 21
47.45
  0
LINE
  8
0
  6
CONTINUOUS
 62
     7
 10
173.7368
 20
48.0
 11
182.1368
 21
48.0
  0
LINE
  8
0
  6
CONTINUOUS
 62
     7
 10
174.2368
 20
48.3
 11
181.6368
 21
48.3
  0
LINE
  8
0
  6
CONTINUOUS
 62
     7
 10
173.9368
 20
51.0
 11
181.9368
 21
51.0
  0
LINE
  8
0
  6
CONTINUOUS
 62
     7
 10
181.9368
 20
51.0
 11
181.9368
 21
47.2
  0
LINE
  8
0
  6
CONTINUOUS
 62
     7
 10
173.9368
 20
51.0
 11
173.9368
 21
47.2
  0
LINE
  8
0
  6
CONTINUOUS
 62
     7
 10
174.4868
 20
47.65001
 11
176.3868
 21
47.65001
  0
LINE
  8
0
  6
CONTINUOUS
 62
     7
 10
176.9868
 20
47.65001
 11
178.8868
 21
47.65001
  0
LINE
  8
0
  6
CONTINUOUS
 62
     7
 10
179.4868
 20
47.65001
 11
181.3868
 21
47.65001
  0
LINE
  8
0
  6
CONTINUOUS
 62
     7
 10
174.9368
 20
45.25
 11
175.9368
 21
45.25
  0
LINE
  8
0
  6
CONTINUOUS
 62
     7
 10
177.4368
 20
45.25
 11
178.4368
 21
45.25
  0
LINE
  8
0
  6
CONTINUOUS
 62
     7
 10
179.9368
 20
45.25
 11
180.9368
 21
45.25
  0
LINE
  8
0
  6
CONTINUOUS
 62
     7
 10
174.9368
 20
45.55
 11
174.9368
 21
45.25
  0
LINE
  8
0
  6
CONTINUOUS
 62
     7
 10
175.9368
 20
45.55
 11
175.9368
 21
45.25
  0
LINE
  8
0
  6
CONTINUOUS
 62
     7
 10
177.4368
 20
45.55
 11
177.4368
 21
45.25
  0
LINE
  8
0
  6
CONTINUOUS
 62
     7
 10
178.4368
 20
45.55
 11
178.4368
 21
45.25
  0
LINE
  8
0
  6
CONTINUOUS
 62
     7
 10
180.9368
 20
45.55
 11
180.9368
 21
45.25
  0
LINE
  8
0
  6
CONTINUOUS
 62
     7
 10
179.9368
 20
45.55
 11
179.9368
 21
45.25
  0
LINE
  8
0
  6
CONTINUOUS
 62
     7
 10
174.9368
 20
44.125
 11
175.9368
 21
44.125
  0
LINE
  8
0
  6
CONTINUOUS
 62
     7
 10
175.4368
 20
44.625
 11
175.4368
 21
43.625
  0
LINE
  8
0
  6
CONTINUOUS
 62
     7
 10
179.9368
 20
44.125
 11
180.9368
 21
44.125
  0
LINE
  8
0
  6
CONTINUOUS
 62
     7
 10
184.4368
 20
50.2
 11
181.9368
 21
50.2
  0
LINE
  8
0
  6
CENTER
 62
     2
 10
173.9368
 20
34.5
 11
181.9368
 21
34.5
  0
LINE
  8
0
  6
CONTINUOUS
 62
     7
 10
185.4368
 20
121.0
 11
170.4368
 21
121.0
  0
LINE
  8
0
  6
CONTINUOUS
 62
     7
 10
184.9368
 20
111.9
 11
181.9368
 21
111.9
  0
LINE
  8
0
  6
CONTINUOUS
 62
     7
 10
176.4368
 20
124.0
 11
176.4368
 21
121.0
  0
LINE
  8
0
  6
CONTINUOUS
 62
     7
 10
179.4368
 20
142.0
 11
179.4368
 21
145.0
  0
LINE
  8
0
  6
CONTINUOUS
 62
     7
 10
182.4368
 20
139.0
 11
185.4368
 21
139.0
  0
LINE
  8
0
  6
CONTINUOUS
 62
     7
 10
173.4368
 20
127.0
 11
170.4368
 21
127.0
  0
LINE
  8
0
  6
CONTINUOUS
 62
     7
 10
179.4368
 20
144.0
 11
171.4368
 21
144.0
  0
LINE
  8
0
  6
CONTINUOUS
 62
     7
 10
184.4368
 20
122.0
 11
176.4368
 21
122.0
  0
LINE
  8
0
  6
CONTINUOUS
 62
     7
 10
184.4368
 20
139.0
 11
184.4368
 21
122.0
  0
LINE
  8
0
  6
CONTINUOUS
 62
     7
 10
171.4368
 20
144.0
 11
171.4368
 21
127.0
  0
LINE
  8
0
  6
CONTINUOUS
 62
     7
 10
171.2068
 20
123.7
 11
170.9045
 21
123.7
  0
LINE
  8
0
  6
CONTINUOUS
 62
     7
 10
171.2068
 20
124.3
 11
170.9045
 21
124.3
  0
LINE
  8
0
  6
CONTINUOUS
 62
     7
 10
170.9287
 20
124.4608
 11
171.2344
 21
124.4608
  0
LINE
  8
0
  6
CONTINUOUS
 62
     7
 10
184.6667
 20
142.3
 11
184.9691
 21
142.3
  0
LINE
  8
0
  6
CONTINUOUS
 62
     7
 10
184.6667
 20
141.7
 11
184.9691
 21
141.7
  0
LINE
  8
0
  6
CONTINUOUS
 62
     7
 10
184.9448
 20
141.5392
 11
184.6391
 21
141.5392
  0
LINE
  8
0
  6
CONTINUOUS
 62
     7
 10
172.7014
 20
125.1031
 11
173.0691
 21
124.7354
  0
LINE
  8
0
  6
CONTINUOUS
 62
     7
 10
172.3337
 20
124.7354
 11
172.7014
 21
124.3677
  0
LINE
  8
0
  6
CONTINUOUS
 62
     7
 10
172.7014
 20
125.103
 11
172.3337
 21
124.7353
  0
LINE
  8
0
  6
CONTINUOUS
 62
     7
 10
174.5399
 20
123.2646
 11
174.1722
 21
122.8969
  0
LINE
  8
0
  6
CONTINUOUS
 62
     7
 10
174.8333
 20
125.7641
 11
173.8045
 21
124.7353
  0
LINE
  8
0
  6
CONTINUOUS
 62
     7
 10
175.201
 20
125.3964
 11
174.1722
 21
124.3677
  0
LINE
  8
0
  6
CONTINUOUS
 62
     7
 10
174.1722
 20
123.6323
 11
174.5399
 21
123.2646
  0
LINE
  8
0
  6
CONTINUOUS
 62
     7
 10
173.8045
 20
123.2646
 11
174.1722
 21
122.8969
  0
LINE
  8
0
  6
CONTINUOUS
 62
     7
 10
172.7014
 20
123.6323
 11
171.6726
 21
122.6035
  0
LINE
  8
0
  6
CONTINUOUS
 62
     7
 10
173.0691
 20
123.2646
 11
172.0403
 21
122.2358
  0
LINE
  8
0
  6
CONTINUOUS
 62
     7
 10
181.7014
 20
143.1031
 11
182.0691
 21
142.7354
  0
LINE
  8
0
  6
CONTINUOUS
 62
     7
 10
181.3337
 20
142.7354
 11
181.7014
 21
142.3677
  0
LINE
  8
0
  6
CONTINUOUS
 62
     7
 10
181.7014
 20
143.1031
 11
181.3337
 21
142.7354
  0
LINE
  8
0
  6
CONTINUOUS
 62
     7
 10
183.5399
 20
141.2646
 11
183.1722
 21
140.8969
  0
LINE
  8
0
  6
CONTINUOUS
 62
     7
 10
183.8333
 20
143.7641
 11
182.8045
 21
142.7354
  0
LINE
  8
0
  6
CONTINUOUS
 62
     7
 10
184.201
 20
143.3965
 11
183.1722
 21
142.3676
  0
LINE
  8
0
  6
CONTINUOUS
 62
     7
 10
183.1722
 20
141.6323
 11
183.5399
 21
141.2646
  0
LINE
  8
0
  6
CONTINUOUS
 62
     7
 10
182.8045
 20
141.2646
 11
183.1722
 21
140.8969
  0
LINE
  8
0
  6
CONTINUOUS
 62
     7
 10
181.7014
 20
141.6323
 11
180.6726
 21
140.6035
  0
LINE
  8
0
  6
CONTINUOUS
 62
     7
 10
182.0691
 20
141.2646
 11
181.0403
 21
140.2358
  0
LINE
  8
0
  6
CONTINUOUS
 62
     7
 10
181.9368
 20
102.5
 11
173.9368
 21
102.5
  0
LINE
  8
0
  6
CONTINUOUS
 62
     7
 10
181.9368
 20
108.1713
 11
173.9368
 21
108.1713
  0
LINE
  8
0
  6
CONTINUOUS
 62
     7
 10
181.9368
 20
119.5
 11
173.9368
 21
119.5
  0
LINE
  8
0
  6
CONTINUOUS
 62
     7
 10
173.7368
 20
121.0
 11
173.7368
 21
117.5
  0
LINE
  8
0
  6
CONTINUOUS
 62
     7
 10
182.1368
 20
121.0
 11
182.1368
 21
117.5
  0
LINE
  8
0
  6
CONTINUOUS
 62
     7
 10
182.1368
 20
117.5
 11
181.9368
 21
117.5
  0
LINE
  8
0
  6
CONTINUOUS
 62
     7
 10
182.1368
 20
116.5
 11
181.9368
 21
116.5
  0
LINE
  8
0
  6
CONTINUOUS
 62
     7
 10
173.7368
 20
116.5
 11
173.7368
 21
111.9
  0
LINE
  8
0
  6
CONTINUOUS
 62
     7
 10
182.1368
 20
116.5
 11
182.1368
 21
111.9
  0
LINE
  8
0
  6
CONTINUOUS
 62
     7
 10
173.9368
 20
111.9
 11
170.9368
 21
111.9
  0
LINE
  8
0
  6
CONTINUOUS
 62
     7
 10
173.9368
 20
116.5
 11
173.7368
 21
116.5
  0
LINE
  8
0
  6
CONTINUOUS
 62
     7
 10
173.9368
 20
117.5
 11
173.7368
 21
117.5
  0
LINE
  8
0
  6
CENTER
 62
     2
 10
177.4368
 20
124.0
 11
169.4368
 21
124.0
  0
LINE
  8
0
  6
CENTER
 62
     2
 10
186.4368
 20
142.0
 11
178.4368
 21
142.0
  0
LINE
  8
0
  6
CENTER
 62
     2
 10
182.4368
 20
146.0
 11
182.4368
 21
138.0
  0
LINE
  8
0
  6
CENTER
 62
     2
 10
173.4368
 20
128.0
 11
173.4368
 21
120.0
  0
LINE
  8
0
  6
CONTINUOUS
 62
     7
 10
185.4368
 20
144.5
 11
185.4368
 21
121.0
  0
LINE
  8
0
  6
CONTINUOUS
 62
     7
 10
184.9368
 20
145.0
 11
170.9368
 21
145.0
  0
LINE
  8
0
  6
CONTINUOUS
 62
     7
 10
170.4368
 20
144.5
 11
170.4368
 21
121.0
  0
LINE
  8
0
  6
CONTINUOUS
 62
     7
 10
184.9368
 20
121.0
 11
184.9368
 21
111.8
  0
LINE
  8
0
  6
CONTINUOUS
 62
     7
 10
184.1368
 20
111.0
 11
183.4368
 21
111.0
  0
LINE
  8
0
  6
CONTINUOUS
 62
     7
 10
172.4368
 20
111.0
 11
171.7368
 21
111.0
  0
LINE
  8
0
  6
CONTINUOUS
 62
     7
 10
170.9368
 20
121.0
 11
170.9368
 21
111.8
  0
LINE
  8
0
  6
CONTINUOUS
 62
     7
 10
172.4368
 20
111.9
 11
172.4368
 21
100.5
  0
LINE
  8
0
  6
CONTINUOUS
 62
     7
 10
183.4368
 20
100.5
 11
172.4368
 21
100.5
  0
LINE
  8
0
  6
CONTINUOUS
 62
     7
 10
183.4368
 20
111.9
 11
183.4368
 21
100.5
  0
LINE
  8
0
  6
CONTINUOUS
 62
     7
 10
181.9368
 20
119.5
 11
181.9368
 21
100.5
  0
LINE
  8
0
  6
CONTINUOUS
 62
     7
 10
173.9368
 20
119.5
 11
173.9368
 21
100.5
  0
LINE
  8
0
  6
CONTINUOUS
 62
     7
 10
181.2868
 20
100.5
 11
181.2868
 21
95.37881
  0
LINE
  8
0
  6
CONTINUOUS
 62
     7
 10
179.5868
 20
100.5
 11
179.5868
 21
95.83432
  0
LINE
  8
0
  6
CENTER
 62
     2
 10
180.4368
 20
103.5
 11
180.4368
 21
77.49998
  0
LINE
  8
0
  6
CONTINUOUS
 62
     7
 10
180.7568
 20
90.49998
 11
180.7568
 21
80.49998
  0
LINE
  8
0
  6
CONTINUOUS
 62
     7
 10
181.2868
 20
90.49998
 11
179.5868
 21
90.49998
  0
LINE
  8
0
  6
CONTINUOUS
 62
     7
 10
180.7568
 20
80.49998
 11
180.1168
 21
80.49998
  0
LINE
  8
0
  6
CONTINUOUS
 62
     7
 10
180.1168
 20
90.49998
 11
180.1168
 21
80.49998
  0
LINE
  8
0
  6
CONTINUOUS
 62
     7
 10
175.7568
 20
90.49998
 11
175.7568
 21
80.49998
  0
LINE
  8
0
  6
CONTINUOUS
 62
     7
 10
175.7568
 20
80.49998
 11
175.1168
 21
80.49998
  0
LINE
  8
0
  6
CONTINUOUS
 62
     7
 10
175.1168
 20
90.49998
 11
175.1168
 21
80.49998
  0
LINE
  8
0
  6
CENTER
 62
     2
 10
175.4368
 20
103.5
 11
175.4368
 21
77.49998
  0
LINE
  8
0
  6
CONTINUOUS
 62
     7
 10
176.2867
 20
100.5
 11
176.2867
 21
96.71855
  0
LINE
  8
0
  6
CONTINUOUS
 62
     7
 10
176.2867
 20
90.49998
 11
174.5868
 21
90.49998
  0
LINE
  8
0
  6
CONTINUOUS
 62
     7
 10
174.5868
 20
100.5
 11
174.5868
 21
97.17407
  0
LINE
  8
0
  6
PHANTOM
 62
     2
 10
172.5867
 20
97.70998
 11
183.2868
 21
94.84292
  0
LINE
  8
0
  6
PHANTOM
 62
     2
 10
172.5868
 20
96.15706
 11
183.2867
 21
93.29001
  0
LINE
  8
0
  6
CONTINUOUS
 62
     7
 10
181.2868
 20
93.8259
 11
181.2868
 21
90.49998
  0
LINE
  8
0
  6
CONTINUOUS
 62
     7
 10
179.5868
 20
94.28142
 11
179.5868
 21
90.49998
  0
LINE
  8
0
  6
CONTINUOUS
 62
     7
 10
176.2867
 20
95.16563
 11
176.2867
 21
90.49998
  0
LINE
  8
0
  6
CONTINUOUS
 62
     7
 10
174.5868
 20
95.62115
 11
174.5868
 21
90.49998
  0
LINE
  8
0
  6
CENTER
 62
     2
 10
177.9368
 20
98.49507
 11
177.9368
 21
146.9999
  0
LINE
  8
0
  6
CENTER
 62
     2
 10
167.9884
 20
133.0
 11
187.9246
 21
133.0
  0
LINE
  8
0
  6
CONTINUOUS
 62
     7
 10
22.4368
 20
21.99995
 11
55.63681
 21
21.99995
  0
LINE
  8
0
  6
CONTINUOUS
 62
     7
 10
22.4368
 20
48.19997
 11
22.4368
 21
-30.00005
  0
LINE
  8
0
  6
CONTINUOUS
 62
     7
 10
22.4368
 20
4.99995
 11
46.4368
 21
4.99995
  0
LINE
  8
0
  6
CENTER
 62
     2
 10
34.4368
 20
53.19997
 11
34.4368
 21
-32.80003
  0
LINE
  8
0
  6
CONTINUOUS
 62
     7
 10
46.4368
 20
48.99995
 11
46.4368
 21
-30.00005
  0
LINE
  8
0
  6
CONTINUOUS
 62
     7
 10
22.4368
 20
-23.00005
 11
46.4368
 21
-23.00005
  0
LINE
  8
0
  6
CONTINUOUS
 62
     7
 10
22.9368
 20
-30.50005
 11
45.9368
 21
-30.50005
  0
LINE
  8
0
  6
CONTINUOUS
 62
     7
 10
40.73682
 20
-25.50005
 11
45.9368
 21
-25.50005
  0
LINE
  8
0
  6
CENTER
 62
     2
 10
43.4368
 20
-23.70004
 11
43.4368
 21
-33.15004
  0
LINE
  8
0
  6
CONTINUOUS
 62
     7
 10
40.23682
 20
-26.00005
 11
40.23682
 21
-30.00005
  0
LINE
  8
0
  6
CONTINUOUS
 62
     7
 10
40.63678
 20
-26.67186
 11
40.63678
 21
-25.50005
  0
LINE
  8
0
  6
CONTINUOUS
 62
     7
 10
46.23679
 20
-26.67186
 11
46.23679
 21
-25.50005
  0
LINE
  8
0
  6
CENTER
 62
     2
 10
42.03232
 20
-0.00005
 11
47.26236
 21
-0.00005
  0
LINE
  8
0
  6
CONTINUOUS
 62
     7
 10
43.4368
 20
1.8138
 11
43.4368
 21
-1.81389
  0
LINE
  8
0
  6
CONTINUOUS
 62
     7
 10
43.4368
 20
1.8138
 11
46.4368
 21
1.8138
  0
LINE
  8
0
  6
CONTINUOUS
 62
     7
 10
43.4368
 20
-1.81389
 11
46.4368
 21
-1.81389
  0
LINE
  8
0
  6
CONTINUOUS
 62
     7
 10
22.4368
 20
47.19997
 11
46.4368
 21
47.19997
  0
LINE
  8
0
  6
CONTINUOUS
 62
     7
 10
56.4368
 20
42.19997
 11
56.4368
 21
22.79996
  0
LINE
  8
0
  6
CONTINUOUS
 62
     7
 10
46.4368
 20
48.99995
 11
57.4368
 21
48.99995
  0
LINE
  8
0
  6
CONTINUOUS
 62
     7
 10
55.5368
 20
48.99995
 11
55.5368
 21
42.99995
  0
LINE
  8
0
  6
CONTINUOUS
 62
     7
 10
46.4368
 20
42.99995
 11
58.9368
 21
42.99995
  0
LINE
  8
0
  6
CONTINUOUS
 62
     7
 10
23.4368
 20
50.19997
 11
41.61102
 21
50.19997
  0
LINE
  8
0
  6
CONTINUOUS
 62
     7
 10
22.4368
 20
48.19997
 11
46.4368
 21
48.19997
  0
LINE
  8
0
  6
CONTINUOUS
 62
     7
 10
22.4368
 20
48.19996
 11
23.4368
 21
50.19996
  0
LINE
  8
0
  6
CONTINUOUS
 62
     7
 10
46.43678
 20
48.19992
 11
45.43678
 21
50.19991
  0
LINE
  8
0
  6
CONTINUOUS
 62
     7
 10
40.4368
 20
50.19997
 11
40.4368
 21
48.19997
  0
LINE
  8
0
  6
CENTER
 62
     2
 10
43.4368
 20
53.19997
 11
43.4368
 21
44.19997
  0
LINE
  8
0
  6
CONTINUOUS
 62
     7
 10
45.98679
 20
48.79996
 11
40.88681
 21
48.79996
  0
LINE
  8
0
  6
CONTINUOUS
 62
     7
 10
43.13679
 20
48.19996
 11
42.97602
 21
48.79995
  0
LINE
  8
0
  6
CONTINUOUS
 62
     7
 10
43.73689
 20
48.79997
 11
43.89766
 21
48.19998
  0
LINE
  8
0
  6
CONTINUOUS
 62
     7
 10
45.98679
 20
48.79996
 11
45.98679
 21
48.19997
  0
LINE
  8
0
  6
CONTINUOUS
 62
     7
 10
40.88681
 20
48.79996
 11
40.88681
 21
48.19997
  0
LINE
  8
0
  6
CONTINUOUS
 62
     7
 10
45.68683
 20
49.4937
 11
45.68683
 21
48.79996
  0
LINE
  8
0
  6
CONTINUOUS
 62
     7
 10
41.18683
 20
49.4937
 11
41.18683
 21
48.79996
  0
LINE
  8
0
  6
CONTINUOUS
 62
     7
 10
45.26257
 20
50.19997
 11
45.4368
 21
50.19997
  0
LINE
  8
0
  6
CENTER
 62
     2
 10
25.4368
 20
53.19997
 11
25.4368
 21
44.19997
  0
LINE
  8
0
  6
CONTINUOUS
 62
     7
 10
66.9368
 20
50.99995
 11
66.9368
 21
49.99995
  0
LINE
  8
0
  6
CONTINUOUS
 62
     7
 10
65.4368
 20
43.99995
 11
65.4368
 21
42.99995
  0
LINE
  8
0
  6
CONTINUOUS
 62
     7
 10
47.9368
 20
49.49995
 11
47.9368
 21
48.99995
  0
LINE
  8
0
  6
CONTINUOUS
 62
     7
 10
66.9368
 20
42.99995
 11
65.4368
 21
42.99995
  0
LINE
  8
0
  6
CONTINUOUS
 62
     7
 10
65.4368
 20
43.99995
 11
58.9368
 21
43.99995
  0
LINE
  8
0
  6
CONTINUOUS
 62
     7
 10
66.9368
 20
45.39995
 11
55.5368
 21
45.39995
  0
LINE
  8
0
  6
CONTINUOUS
 62
     7
 10
66.9368
 20
47.19997
 11
55.5368
 21
47.19997
  0
LINE
  8
0
  6
CONTINUOUS
 62
     7
 10
48.4368
 20
49.99995
 11
59.2655
 21
49.99995
  0
LINE
  8
0
  6
CONTINUOUS
 62
     7
 10
66.9368
 20
50.99995
 11
64.9368
 21
50.99995
  0
LINE
  8
0
  6
CONTINUOUS
 62
     7
 10
66.9368
 20
49.99995
 11
65.4368
 21
49.99995
  0
LINE
  8
0
  6
CONTINUOUS
 62
     7
 10
64.93681
 20
50.99996
 11
59.26553
 21
49.99996
  0
LINE
  8
0
  6
CONTINUOUS
 62
     7
 10
65.43677
 20
49.99994
 11
59.7655
 21
48.99995
  0
LINE
  8
0
  6
CONTINUOUS
 62
     7
 10
55.5368
 20
47.99995
 11
57.4368
 21
47.99995
  0
LINE
  8
0
  6
CONTINUOUS
 62
     7
 10
58.9368
 20
43.99995
 11
58.9368
 21
42.99995
  0
LINE
  8
0
  6
CONTINUOUS
 62
     7
 10
55.5368
 20
48.29996
 11
56.13681
 21
48.29996
  0
LINE
  8
0
  6
CONTINUOUS
 62
     7
 10
66.63679
 20
48.29991
 11
66.93678
 21
47.99992
  0
LINE
  8
0
  6
CONTINUOUS
 62
     7
 10
60.43677
 20
47.99996
 11
60.73677
 21
48.29997
  0
LINE
  8
0
  6
CONTINUOUS
 62
     7
 10
56.13683
 20
48.29998
 11
56.43684
 21
47.99997
  0
LINE
  8
0
  6
CONTINUOUS
 62
     7
 10
60.73679
 20
48.29996
 11
66.63681
 21
48.29996
  0
LINE
  8
0
  6
CONTINUOUS
 62
     7
 10
59.4368
 20
48.99995
 11
59.7655
 21
48.99995
  0
LINE
  8
0
  6
CONTINUOUS
 62
     7
 10
59.4368
 20
47.99995
 11
66.9368
 21
47.99995
  0
LINE
  8
0
  6
CONTINUOUS
 62
     7
 10
66.9368
 20
47.99995
 11
66.9368
 21
42.99995
  0
LINE
  8
0
  6
CONTINUOUS
 62
     7
 10
56.73679
 20
45.39995
 11
56.73679
 21
43.89995
  0
LINE
  8
0
  6
CONTINUOUS
 62
     7
 10
56.73679
 20
43.89995
 11
55.5368
 21
43.89995
  0
LINE
  8
0
  6
CENTER
 62
     2
 10
63.9368
 20
46.49995
 11
89.9368
 21
46.49995
  0
LINE
  8
0
  6
CONTINUOUS
 62
     7
 10
66.9368
 20
45.64995
 11
70.93259
 21
45.64995
  0
LINE
  8
0
  6
CONTINUOUS
 62
     7
 10
66.9368
 20
47.34996
 11
71.38809
 21
47.34996
  0
LINE
  8
0
  6
CONTINUOUS
 62
     7
 10
76.9368
 20
46.81996
 11
86.9368
 21
46.81996
  0
LINE
  8
0
  6
CONTINUOUS
 62
     7
 10
76.9368
 20
46.17996
 11
86.9368
 21
46.17996
  0
LINE
  8
0
  6
CONTINUOUS
 62
     7
 10
76.9368
 20
47.34996
 11
76.9368
 21
45.64995
  0
LINE
  8
0
  6
CONTINUOUS
 62
     7
 10
86.9368
 20
46.81996
 11
86.9368
 21
46.17996
  0
LINE
  8
0
  6
PHANTOM
 62
     2
 10
70.39668
 20
43.64994
 11
71.924
 21
49.34995
  0
LINE
  8
0
  6
PHANTOM
 62
     2
 10
71.94956
 20
43.64996
 11
73.47688
 21
49.34996
  0
LINE
  8
0
  6
CONTINUOUS
 62
     7
 10
72.94101
 20
47.34996
 11
76.9368
 21
47.34996
  0
LINE
  8
0
  6
CONTINUOUS
 62
     7
 10
72.4855
 20
45.64995
 11
76.9368
 21
45.64995
  0
LINE
  8
0
  6
CONTINUOUS
 62
     7
 10
332.4368
 20
21.99997
 11
299.2368
 21
21.99997
  0
LINE
  8
0
  6
CONTINUOUS
 62
     7
 10
332.4368
 20
48.19997
 11
332.4368
 21
-30.00003
  0
LINE
  8
0
  6
CONTINUOUS
 62
     7
 10
332.4368
 20
4.99997
 11
308.4368
 21
4.99997
  0
LINE
  8
0
  6
CENTER
 62
     2
 10
320.4368
 20
53.19997
 11
320.4368
 21
-32.80003
  0
LINE
  8
0
  6
CONTINUOUS
 62
     7
 10
308.4368
 20
48.99997
 11
308.4368
 21
-30.00003
  0
LINE
  8
0
  6
CONTINUOUS
 62
     7
 10
332.4368
 20
-23.00003
 11
308.4368
 21
-23.00003
  0
LINE
  8
0
  6
CONTINUOUS
 62
     7
 10
331.9368
 20
-30.50003
 11
308.9368
 21
-30.50003
  0
LINE
  8
0
  6
CONTINUOUS
 62
     7
 10
314.1368
 20
-25.50003
 11
308.9368
 21
-25.50003
  0
LINE
  8
0
  6
CENTER
 62
     2
 10
311.4368
 20
-23.70003
 11
311.4368
 21
-33.15004
  0
LINE
  8
0
  6
CONTINUOUS
 62
     7
 10
314.6368
 20
-26.00003
 11
314.6368
 21
-30.00003
  0
LINE
  8
0
  6
CONTINUOUS
 62
     7
 10
314.2368
 20
-26.67184
 11
314.2368
 21
-25.50003
  0
LINE
  8
0
  6
CONTINUOUS
 62
     7
 10
308.6368
 20
-26.67186
 11
308.6368
 21
-25.50003
  0
LINE
  8
0
  6
CENTER
 62
     2
 10
312.8413
 20
-18.00003
 11
307.6113
 21
-18.00003
  0
LINE
  8
0
  6
CONTINUOUS
 62
     7
 10
311.4368
 20
-16.1862
 11
311.4368
 21
-19.81387
  0
LINE
  8
0
  6
CONTINUOUS
 62
     7
 10
311.4368
 20
-16.1862
 11
308.4368
 21
-16.1862
  0
LINE
  8
0
  6
CONTINUOUS
 62
     7
 10
311.4368
 20
-19.81387
 11
308.4368
 21
-19.81387
  0
LINE
  8
0
  6
CONTINUOUS
 62
     7
 10
332.4368
 20
47.19997
 11
308.4368
 21
47.19997
  0
LINE
  8
0
  6
CONTINUOUS
 62
     7
 10
298.4368
 20
42.19997
 11
298.4368
 21
22.79997
  0
LINE
  8
0
  6
CONTINUOUS
 62
     7
 10
308.4368
 20
48.99997
 11
297.4368
 21
48.99997
  0
LINE
  8
0
  6
CONTINUOUS
 62
     7
 10
299.3369
 20
48.99997
 11
299.3369
 21
42.99997
  0
LINE
  8
0
  6
CONTINUOUS
 62
     7
 10
308.4368
 20
42.99997
 11
295.9368
 21
42.99997
  0
LINE
  8
0
  6
CONTINUOUS
 62
     7
 10
309.4368
 20
50.19997
 11
327.6111
 21
50.19997
  0
LINE
  8
0
  6
CONTINUOUS
 62
     7
 10
332.4368
 20
48.19997
 11
308.4368
 21
48.19997
  0
LINE
  8
0
  6
CONTINUOUS
 62
     7
 10
308.4368
 20
48.2
 11
309.4368
 21
50.2
  0
LINE
  8
0
  6
CONTINUOUS
 62
     7
 10
332.4368
 20
48.19993
 11
331.4368
 21
50.19991
  0
LINE
  8
0
  6
CONTINUOUS
 62
     7
 10
326.4368
 20
50.19997
 11
326.4368
 21
48.19997
  0
LINE
  8
0
  6
CENTER
 62
     2
 10
329.4368
 20
53.19997
 11
329.4368
 21
44.19997
  0
LINE
  8
0
  6
CONTINUOUS
 62
     7
 10
331.9868
 20
48.79997
 11
326.8868
 21
48.79997
  0
LINE
  8
0
  6
CONTINUOUS
 62
     7
 10
329.1367
 20
48.19993
 11
328.9759
 21
48.79992
  0
LINE
  8
0
  6
CONTINUOUS
 62
     7
 10
329.7367
 20
48.79993
 11
329.8975
 21
48.19994
  0
LINE
  8
0
  6
CONTINUOUS
 62
     7
 10
331.9868
 20
48.79997
 11
331.9868
 21
48.19997
  0
LINE
  8
0
  6
CONTINUOUS
 62
     7
 10
326.8868
 20
48.79997
 11
326.8868
 21
48.19997
  0
LINE
  8
0
  6
CONTINUOUS
 62
     7
 10
331.6868
 20
49.49373
 11
331.6868
 21
48.79997
  0
LINE
  8
0
  6
CONTINUOUS
 62
     7
 10
327.1868
 20
49.49373
 11
327.1868
 21
48.79997
  0
LINE
  8
0
  6
CONTINUOUS
 62
     7
 10
331.2626
 20
50.19997
 11
331.4368
 21
50.19997
  0
LINE
  8
0
  6
CENTER
 62
     2
 10
311.4368
 20
53.19997
 11
311.4368
 21
44.19997
  0
LINE
  8
0
  6
CONTINUOUS
 62
     7
 10
287.9368
 20
50.99997
 11
287.9368
 21
49.99997
  0
LINE
  8
0
  6
CONTINUOUS
 62
     7
 10
289.4368
 20
43.99997
 11
289.4368
 21
42.99997
  0
LINE
  8
0
  6
CONTINUOUS
 62
     7
 10
306.9368
 20
49.49997
 11
306.9368
 21
48.99997
  0
LINE
  8
0
  6
CONTINUOUS
 62
     7
 10
287.9368
 20
42.99997
 11
289.4368
 21
42.99997
  0
LINE
  8
0
  6
CONTINUOUS
 62
     7
 10
289.4368
 20
43.99997
 11
295.9368
 21
43.99997
  0
LINE
  8
0
  6
CONTINUOUS
 62
     7
 10
287.9368
 20
45.39998
 11
299.3369
 21
45.39998
  0
LINE
  8
0
  6
CONTINUOUS
 62
     7
 10
287.9368
 20
47.19997
 11
299.3369
 21
47.19997
  0
LINE
  8
0
  6
CONTINUOUS
 62
     7
 10
306.4368
 20
49.99997
 11
295.6081
 21
49.99997
  0
LINE
  8
0
  6
CONTINUOUS
 62
     7
 10
287.9368
 20
50.99997
 11
289.9368
 21
50.99997
  0
LINE
  8
0
  6
CONTINUOUS
 62
     7
 10
287.9368
 20
49.99997
 11
289.4368
 21
49.99997
  0
LINE
  8
0
  6
CONTINUOUS
 62
     7
 10
289.9368
 20
50.99998
 11
295.6081
 21
49.99997
  0
LINE
  8
0
  6
CONTINUOUS
 62
     7
 10
289.4369
 20
49.99997
 11
295.1081
 21
48.99997
  0
LINE
  8
0
  6
CONTINUOUS
 62
     7
 10
299.3369
 20
47.99997
 11
297.4368
 21
47.99997
  0
LINE
  8
0
  6
CONTINUOUS
 62
     7
 10
295.9368
 20
43.99997
 11
295.9368
 21
42.99997
  0
LINE
  8
0
  6
CONTINUOUS
 62
     7
 10
299.3369
 20
48.29997
 11
298.7368
 21
48.29997
  0
LINE
  8
0
  6
CONTINUOUS
 62
     7
 10
288.2368
 20
48.29998
 11
287.9369
 21
47.99998
  0
LINE
  8
0
  6
CONTINUOUS
 62
     7
 10
294.4369
 20
47.99995
 11
294.1369
 21
48.29995
  0
LINE
  8
0
  6
CONTINUOUS
 62
     7
 10
298.7369
 20
48.29996
 11
298.4369
 21
47.99996
  0
LINE
  8
0
  6
CONTINUOUS
 62
     7
 10
294.1368
 20
48.29997
 11
288.2368
 21
48.29997
  0
LINE
  8
0
  6
CONTINUOUS
 62
     7
 10
295.4368
 20
48.99997
 11
295.1081
 21
48.99997
  0
LINE
  8
0
  6
CONTINUOUS
 62
     7
 10
295.4368
 20
47.99997
 11
287.9368
 21
47.99997
  0
LINE
  8
0
  6
CONTINUOUS
 62
     7
 10
287.9368
 20
47.99997
 11
287.9368
 21
42.99997
  0
LINE
  8
0
  6
CONTINUOUS
 62
     7
 10
298.1368
 20
45.39998
 11
298.1368
 21
43.89998
  0
LINE
  8
0
  6
CONTINUOUS
 62
     7
 10
298.1368
 20
43.89998
 11
299.3369
 21
43.89998
  0
LINE
  8
0
  6
CENTER
 62
     2
 10
290.9368
 20
46.49997
 11
264.9368
 21
46.49997
  0
LINE
  8
0
  6
CONTINUOUS
 62
     7
 10
287.9368
 20
45.64998
 11
283.4855
 21
45.64998
  0
LINE
  8
0
  6
CONTINUOUS
 62
     7
 10
287.9368
 20
47.34998
 11
283.941
 21
47.34998
  0
LINE
  8
0
  6
CONTINUOUS
 62
     7
 10
277.9368
 20
46.81998
 11
267.9368
 21
46.81998
  0
LINE
  8
0
  6
CONTINUOUS
 62
     7
 10
277.9368
 20
46.17998
 11
267.9368
 21
46.17998
  0
LINE
  8
0
  6
CONTINUOUS
 62
     7
 10
277.9368
 20
47.34998
 11
277.9368
 21
45.64998
  0
LINE
  8
0
  6
CONTINUOUS
 62
     7
 10
267.9368
 20
46.81998
 11
267.9368
 21
46.17998
  0
LINE
  8
0
  6
PHANTOM
 62
     2
 10
284.477
 20
49.34996
 11
282.9496
 21
43.64995
  0
LINE
  8
0
  6
PHANTOM
 62
     2
 10
282.924
 20
49.34996
 11
281.3967
 21
43.64996
  0
LINE
  8
0
  6
CONTINUOUS
 62
     7
 10
281.9326
 20
45.64998
 11
277.9368
 21
45.64998
  0
LINE
  8
0
  6
CONTINUOUS
 62
     7
 10
282.3881
 20
47.34998
 11
277.9368
 21
47.34998
  0
LINE
  8
0
  6
CONTINUOUS
 62
     7
 10
170.4368
 20
-163.1999
 11
173.4368
 21
-163.1999
  0
LINE
  8
0
  6
CONTINUOUS
 62
     7
 10
182.4368
 20
-174.8
 11
185.4368
 21
-174.8
  0
LINE
  8
0
  6
CONTINUOUS
 62
     7
 10
176.6368
 20
-160.0
 11
176.6368
 21
-157.0
  0
LINE
  8
0
  6
CONTINUOUS
 62
     7
 10
179.2368
 20
-178.0
 11
179.2368
 21
-181.0
  0
LINE
  8
0
  6
CENTER
 62
     2
 10
168.9368
 20
-169.0
 11
186.9368
 21
-169.0
  0
LINE
  8
0
  6
CENTER
 62
     2
 10
177.9368
 20
-134.2448
 11
177.9368
 21
-183.0
  0
LINE
  8
0
  6
CONTINUOUS
 62
     7
 10
171.4368
 20
-167.0
 11
184.4368
 21
-167.0
  0
LINE
  8
0
  6
CONTINUOUS
 62
     7
 10
171.4368
 20
-171.0
 11
184.4368
 21
-171.0
  0
LINE
  8
0
  6
CONTINUOUS
 62
     7
 10
184.4368
 20
-167.0
 11
184.4368
 21
-171.0
  0
LINE
  8
0
  6
CONTINUOUS
 62
     7
 10
171.4368
 20
-167.0
 11
171.4368
 21
-171.0
  0
LINE
  8
0
  6
CONTINUOUS
 62
     7
 10
172.1489
 20
-169.9698
 11
174.1371
 21
-169.9698
  0
LINE
  8
0
  6
CONTINUOUS
 62
     7
 10
172.1489
 20
-170.5
 11
174.844
 21
-170.5
  0
LINE
  8
0
  6
CONTINUOUS
 62
     7
 10
172.1489
 20
-168.4234
 11
174.1371
 21
-168.4234
  0
LINE
  8
0
  6
CONTINUOUS
 62
     7
 10
172.1489
 20
-167.8932
 11
172.1489
 21
-168.4234
  0
LINE
  8
0
  6
CONTINUOUS
 62
     7
 10
174.844
 20
-168.2466
 11
174.844
 21
-170.5
  0
LINE
  8
0
  6
CONTINUOUS
 62
     7
 10
174.1371
 20
-168.4234
 11
174.1371
 21
-169.9698
  0
LINE
  8
0
  6
CONTINUOUS
 62
     7
 10
175.2416
 20
-167.8932
 11
175.2416
 21
-168.4234
  0
LINE
  8
0
  6
CONTINUOUS
 62
     7
 10
177.7601
 20
-168.4234
 11
177.7601
 21
-170.1465
  0
LINE
  8
0
  6
CONTINUOUS
 62
     7
 10
177.0531
 20
-168.4234
 11
177.0531
 21
-169.9698
  0
LINE
  8
0
  6
CONTINUOUS
 62
     7
 10
172.1489
 20
-169.9698
 11
172.1489
 21
-170.5
  0
LINE
  8
0
  6
CONTINUOUS
 62
     7
 10
175.2416
 20
-167.8932
 11
175.9401
 21
-167.8932
  0
LINE
  8
0
  6
CONTINUOUS
 62
     7
 10
175.2416
 20
-170.5
 11
175.7905
 21
-170.5
  0
LINE
  8
0
  6
CONTINUOUS
 62
     7
 10
175.2417
 20
-170.5
 11
175.7982
 21
-168.4234
  0
LINE
  8
0
  6
CONTINUOUS
 62
     7
 10
175.2416
 20
-168.4234
 11
175.7981
 21
-168.4234
  0
LINE
  8
0
  6
CONTINUOUS
 62
     7
 10
175.7906
 20
-170.5
 11
176.347
 21
-168.4235
  0
LINE
  8
0
  6
CONTINUOUS
 62
     7
 10
176.5229
 20
-169.9698
 11
177.0531
 21
-169.9698
  0
LINE
  8
0
  6
CONTINUOUS
 62
     7
 10
176.5229
 20
-169.9697
 11
176.665
 21
-170.4999
  0
LINE
  8
0
  6
CONTINUOUS
 62
     7
 10
176.665
 20
-170.5
 11
177.4066
 21
-170.5
  0
LINE
  8
0
  6
CONTINUOUS
 62
     7
 10
176.347
 20
-168.4234
 11
177.0531
 21
-168.4234
  0
LINE
  8
0
  6
CONTINUOUS
 62
     7
 10
176.489
 20
-167.8932
 11
177.2299
 21
-167.8932
  0
LINE
  8
0
  6
CONTINUOUS
 62
     7
 10
175.9403
 20
-167.8932
 11
176.0457
 21
-167.5
  0
LINE
  8
0
  6
CONTINUOUS
 62
     7
 10
176.489
 20
-167.8932
 11
176.5944
 21
-167.4999
  0
LINE
  8
0
  6
CONTINUOUS
 62
     7
 10
178.2019
 20
-167.8932
 11
179.0414
 21
-167.8932
  0
LINE
  8
0
  6
CONTINUOUS
 62
     7
 10
178.2019
 20
-168.4234
 11
180.2636
 21
-168.4234
  0
LINE
  8
0
  6
CONTINUOUS
 62
     7
 10
179.0414
 20
-170.5
 11
179.7483
 21
-170.5
  0
LINE
  8
0
  6
CONTINUOUS
 62
     7
 10
178.2019
 20
-167.8932
 11
178.2019
 21
-168.4234
  0
LINE
  8
0
  6
CONTINUOUS
 62
     7
 10
180.8087
 20
-169.3848
 11
180.8087
 21
-169.9698
  0
LINE
  8
0
  6
CONTINUOUS
 62
     7
 10
178.202
 20
-169.9699
 11
179.0414
 21
-169.5785
  0
LINE
  8
0
  6
CONTINUOUS
 62
     7
 10
178.2019
 20
-169.3849
 11
180.2636
 21
-168.4235
  0
LINE
  8
0
  6
CONTINUOUS
 62
     7
 10
178.2019
 20
-169.3848
 11
178.2019
 21
-169.9698
  0
LINE
  8
0
  6
CONTINUOUS
 62
     7
 10
179.7483
 20
-169.4753
 11
180.8087
 21
-169.9697
  0
LINE
  8
0
  6
CONTINUOUS
 62
     7
 10
180.1326
 20
-169.0695
 11
180.8088
 21
-169.3848
  0
LINE
  8
0
  6
CONTINUOUS
 62
     7
 10
180.8087
 20
-168.2466
 11
180.8087
 21
-168.529
  0
LINE
  8
0
  6
CONTINUOUS
 62
     7
 10
179.0414
 20
-167.5
 11
179.0414
 21
-167.8932
  0
LINE
  8
0
  6
CONTINUOUS
 62
     7
 10
179.7483
 20
-167.5
 11
179.7483
 21
-167.8932
  0
LINE
  8
0
  6
CONTINUOUS
 62
     7
 10
178.7483
 20
-167.8932
 11
180.4552
 21
-167.8932
  0
LINE
  8
0
  6
CONTINUOUS
 62
     7
 10
179.0414
 20
-169.5783
 11
179.0414
 21
-170.5
  0
LINE
  8
0
  6
CONTINUOUS
 62
     7
 10
179.7483
 20
-169.4753
 11
179.7483
 21
-170.5
  0
LINE
  8
0
  6
CONTINUOUS
 62
     7
 10
180.1326
 20
-169.0696
 11
180.6046
 21
-168.8495
  0
LINE
  8
0
  6
CONTINUOUS
 62
     7
 10
183.1945
 20
-167.659
 11
183.7247
 21
-167.659
  0
LINE
  8
0
  6
CONTINUOUS
 62
     7
 10
181.0296
 20
-168.7542
 11
181.0296
 21
-169.3248
  0
LINE
  8
0
  6
CONTINUOUS
 62
     7
 10
183.7247
 20
-167.659
 11
183.7247
 21
-167.8932
  0
LINE
  8
0
  6
CONTINUOUS
 62
     7
 10
183.1945
 20
-167.659
 11
183.1945
 21
-167.7733
  0
LINE
  8
0
  6
CONTINUOUS
 62
     7
 10
182.4876
 20
-168.7449
 11
182.4876
 21
-170.5
  0
LINE
  8
0
  6
CONTINUOUS
 62
     7
 10
181.0297
 20
-168.7543
 11
183.0832
 21
-167.9375
  0
LINE
  8
0
  6
CONTINUOUS
 62
     7
 10
181.0296
 20
-169.3247
 11
182.4876
 21
-168.7448
  0
LINE
  8
0
  6
CONTINUOUS
 62
     7
 10
182.4876
 20
-170.5
 11
183.1945
 21
-170.5
  0
LINE
  8
0
  6
CONTINUOUS
 62
     7
 10
183.1945
 20
-168.4638
 11
183.1945
 21
-170.5
  0
LINE
  8
0
  6
CONTINUOUS
 62
     7
 10
183.1945
 20
-168.4637
 11
183.3905
 21
-168.3858
  0
LINE
  8
0
  6
CONTINUOUS
 62
     7
 10
176.0455
 20
-167.5
 11
176.5944
 21
-167.5
  0
LINE
  8
0
  6
CONTINUOUS
 62
     7
 10
177.4729
 20
-167.5
 11
177.6989
 21
-167.5
  0
LINE
  8
0
  6
CONTINUOUS
 62
     7
 10
179.0414
 20
-167.5
 11
179.7483
 21
-167.5
  0
LINE
  8
0
  6
CONTINUOUS
 62
     7
 10
177.4729
 20
-167.8534
 11
177.6989
 21
-167.8534
  0
LINE
  8
0
  6
CONTINUOUS
 62
     7
 10
177.4729
 20
-167.5
 11
177.4729
 21
-167.8534
  0
LINE
  8
0
  6
CONTINUOUS
 62
     7
 10
177.6989
 20
-167.5
 11
177.6989
 21
-167.8534
  0
LINE
  8
0
  6
CONTINUOUS
 62
     7
 10
177.8566
 20
-167.5
 11
177.8566
 21
-167.8534
  0
LINE
  8
0
  6
CONTINUOUS
 62
     7
 10
178.0826
 20
-167.5
 11
178.0826
 21
-167.8534
  0
LINE
  8
0
  6
CONTINUOUS
 62
     7
 10
177.8566
 20
-167.5
 11
178.0826
 21
-167.5
  0
LINE
  8
0
  6
CONTINUOUS
 62
     7
 10
177.8566
 20
-167.8534
 11
178.0826
 21
-167.8534
  0
LINE
  8
0
  6
CONTINUOUS
 62
     7
 10
185.4368
 20
-180.5
 11
185.4368
 21
-157.0
  0
LINE
  8
0
  6
CONTINUOUS
 62
     7
 10
170.4368
 20
-180.5
 11
170.4368
 21
-157.0
  0
LINE
  8
0
  6
CONTINUOUS
 62
     7
 10
170.9368
 20
-181.0
 11
184.9368
 21
-181.0
  0
LINE
  8
0
  6
CONTINUOUS
 62
     7
 10
170.4368
 20
-157.0
 11
185.4368
 21
-157.0
  0
LINE
  8
0
  6
CONTINUOUS
 62
     7
 10
172.1489
 20
-167.8932
 11
174.4905
 21
-167.8932
  0
LINE
  8
0
  6
CONTINUOUS
 62
     7
 10
177.7601
 20
-168.4234
 11
177.7601
 21
-170.1465
  0
LINE
  8
0
  6
CONTINUOUS
 62
     7
 10
176.665
 20
-170.5
 11
177.4066
 21
-170.5
  0
LINE
  8
0
  6
CONTINUOUS
 62
     7
 10
176.489
 20
-167.8932
 11
177.2299
 21
-167.8932
  0
LINE
  8
0
  6
CONTINUOUS
 62
     7
 10
180.8087
 20
-168.2466
 11
180.8087
 21
-168.529
  0
LINE
  8
0
  6
CONTINUOUS
 62
     7
 10
183.1945
 20
-167.659
 11
183.7247
 21
-167.659
  0
LINE
  8
0
  6
CONTINUOUS
 62
     7
 10
183.7247
 20
-167.659
 11
183.7247
 21
-167.8932
  0
LINE
  8
0
  6
CONTINUOUS
 62
     7
 10
183.1945
 20
-167.659
 11
183.1945
 21
-167.7733
  0
LINE
  8
0
  6
CONTINUOUS
 62
     7
 10
181.0297
 20
-168.7543
 11
183.0832
 21
-167.9375
  0
LINE
  8
0
  6
CONTINUOUS
 62
     7
 10
183.1945
 20
-168.4638
 11
183.1945
 21
-170.5
  0
LINE
  8
0
  6
CONTINUOUS
 62
     7
 10
183.1945
 20
-168.4636
 11
183.3904
 21
-168.3857
  0
LINE
  8
0
  6
CENTER
 62
     2
 10
173.4368
 20
-164.1789
 11
173.4368
 21
-155.832
  0
LINE
  8
0
  6
CENTER
 62
     2
 10
169.4045
 20
-160.0
 11
177.3466
 21
-160.0
  0
LINE
  8
0
  6
CONTINUOUS
 62
     7
 10
172.5883
 20
-161.2727
 11
172.164
 21
-160.8484
  0
LINE
  8
0
  6
CONTINUOUS
 62
     7
 10
174.7096
 20
-159.1514
 11
174.2854
 21
-158.7271
  0
LINE
  8
0
  6
CONTINUOUS
 62
     7
 10
174.2854
 20
-161.2727
 11
173.8611
 21
-160.8484
  0
LINE
  8
0
  6
CONTINUOUS
 62
     7
 10
174.7096
 20
-160.8484
 11
174.2854
 21
-160.4242
  0
LINE
  8
0
  6
CONTINUOUS
 62
     7
 10
174.2854
 20
-161.2728
 11
174.7096
 21
-160.8485
  0
LINE
  8
0
  6
CONTINUOUS
 62
     7
 10
172.1641
 20
-159.1515
 11
172.5883
 21
-158.7272
  0
LINE
  8
0
  6
CONTINUOUS
 62
     7
 10
172.5884
 20
-161.2728
 11
173.0126
 21
-160.8485
  0
LINE
  8
0
  6
CONTINUOUS
 62
     7
 10
172.1642
 20
-160.8486
 11
172.5884
 21
-160.4243
  0
LINE
  8
0
  6
CONTINUOUS
 62
     7
 10
172.5883
 20
-159.5757
 11
172.1641
 21
-159.1514
  0
LINE
  8
0
  6
CONTINUOUS
 62
     7
 10
173.0126
 20
-159.1514
 11
172.5883
 21
-158.7271
  0
LINE
  8
0
  6
CONTINUOUS
 62
     7
 10
174.2854
 20
-159.5757
 11
174.7097
 21
-159.1515
  0
LINE
  8
0
  6
CONTINUOUS
 62
     7
 10
173.8612
 20
-159.1515
 11
174.2855
 21
-158.7273
  0
LINE
  8
0
  6
CENTER
 62
     2
 10
182.4368
 20
-182.1789
 11
182.4368
 21
-173.832
  0
LINE
  8
0
  6
CENTER
 62
     2
 10
178.4045
 20
-178.0
 11
186.3465
 21
-178.0
  0
LINE
  8
0
  6
CONTINUOUS
 62
     7
 10
181.5883
 20
-179.2728
 11
181.1641
 21
-178.8485
  0
LINE
  8
0
  6
CONTINUOUS
 62
     7
 10
183.7096
 20
-177.1514
 11
183.2854
 21
-176.7272
  0
LINE
  8
0
  6
CONTINUOUS
 62
     7
 10
183.2854
 20
-179.2727
 11
182.8611
 21
-178.8484
  0
LINE
  8
0
  6
CONTINUOUS
 62
     7
 10
183.7096
 20
-178.8485
 11
183.2853
 21
-178.4242
  0
LINE
  8
0
  6
CONTINUOUS
 62
     7
 10
183.2854
 20
-179.2728
 11
183.7097
 21
-178.8486
  0
LINE
  8
0
  6
CONTINUOUS
 62
     7
 10
181.1641
 20
-177.1515
 11
181.5883
 21
-176.7272
  0
LINE
  8
0
  6
CONTINUOUS
 62
     7
 10
181.5883
 20
-179.2728
 11
182.0126
 21
-178.8485
  0
LINE
  8
0
  6
CONTINUOUS
 62
     7
 10
181.1641
 20
-178.8486
 11
181.5884
 21
-178.4243
  0
LINE
  8
0
  6
CONTINUOUS
 62
     7
 10
181.5883
 20
-177.5757
 11
181.164
 21
-177.1514
  0
LINE
  8
0
  6
CONTINUOUS
 62
     7
 10
182.0126
 20
-177.1514
 11
181.5883
 21
-176.7271
  0
LINE
  8
0
  6
CONTINUOUS
 62
     7
 10
183.2854
 20
-177.5757
 11
183.7096
 21
-177.1515
  0
LINE
  8
0
  6
CONTINUOUS
 62
     7
 10
182.8612
 20
-177.1515
 11
183.2854
 21
-176.7273
  0
LINE
  8
0
  6
CONTINUOUS
 62
     7
 10
170.9368
 20
-157.0
 11
170.9368
 21
-147.8
  0
LINE
  8
0
  6
CONTINUOUS
 62
     7
 10
171.7368
 20
-147.0
 11
184.1368
 21
-147.0
  0
LINE
  8
0
  6
CONTINUOUS
 62
     7
 10
184.9368
 20
-157.0
 11
184.9368
 21
-147.8
  0
LINE
  8
0
  6
CONTINUOUS
 62
     7
 10
172.4368
 20
-136.5
 11
183.4368
 21
-136.5
  0
LINE
  8
0
  6
CONTINUOUS
 62
     7
 10
181.9368
 20
-147.0
 11
181.9368
 21
-136.5
  0
LINE
  8
0
  6
CONTINUOUS
 62
     7
 10
173.9368
 20
-147.0
 11
173.9368
 21
-136.5
  0
LINE
  8
0
  6
CONTINUOUS
 62
     7
 10
172.4368
 20
-147.0
 11
172.4368
 21
-136.5
  0
LINE
  8
0
  6
CONTINUOUS
 62
     7
 10
183.4368
 20
-147.0
 11
183.4368
 21
-136.5
  0
LINE
  8
0
  6
CENTER
 62
     2
 10
175.4368
 20
-139.5
 11
175.4368
 21
-113.5
  0
LINE
  8
0
  6
CENTER
 62
     2
 10
180.4368
 20
-139.5
 11
180.4368
 21
-113.5
  0
LINE
  8
0
  6
CONTINUOUS
 62
     7
 10
174.5868
 20
-126.5
 11
176.2868
 21
-126.5
  0
LINE
  8
0
  6
CONTINUOUS
 62
     7
 10
175.1168
 20
-116.5
 11
175.7568
 21
-116.5
  0
LINE
  8
0
  6
CONTINUOUS
 62
     7
 10
180.7568
 20
-126.5
 11
180.7568
 21
-116.5
  0
LINE
  8
0
  6
CONTINUOUS
 62
     7
 10
180.1168
 20
-126.5
 11
180.1168
 21
-116.5
  0
LINE
  8
0
  6
CONTINUOUS
 62
     7
 10
175.7568
 20
-126.5
 11
175.7568
 21
-116.5
  0
LINE
  8
0
  6
CONTINUOUS
 62
     7
 10
175.1168
 20
-126.5
 11
175.1168
 21
-116.5
  0
LINE
  8
0
  6
CONTINUOUS
 62
     7
 10
176.2868
 20
-136.5
 11
176.2868
 21
-131.8343
  0
LINE
  8
0
  6
CONTINUOUS
 62
     7
 10
174.5868
 20
-136.5
 11
174.5868
 21
-131.3788
  0
LINE
  8
0
  6
CONTINUOUS
 62
     7
 10
179.5868
 20
-136.5
 11
179.5868
 21
-132.7185
  0
LINE
  8
0
  6
CONTINUOUS
 62
     7
 10
181.2868
 20
-136.5
 11
181.2868
 21
-133.1741
  0
LINE
  8
0
  6
CONTINUOUS
 62
     7
 10
179.5868
 20
-126.5
 11
181.2868
 21
-126.5
  0
LINE
  8
0
  6
CONTINUOUS
 62
     7
 10
180.1168
 20
-116.5
 11
180.7568
 21
-116.5
  0
LINE
  8
0
  6
CONTINUOUS
 62
     7
 10
173.9368
 20
-138.0
 11
181.9368
 21
-138.0
  0
LINE
  8
0
  6
CONTINUOUS
 62
     7
 10
173.9368
 20
-144.5
 11
181.9368
 21
-144.5
  0
LINE
  8
0
  6
PHANTOM
 62
     2
 10
183.2868
 20
-132.157
 11
172.5868
 21
-129.29
  0
LINE
  8
0
  6
PHANTOM
 62
     2
 10
183.2868
 20
-133.7099
 11
172.5868
 21
-130.8429
  0
LINE
  8
0
  6
CONTINUOUS
 62
     7
 10
174.5868
 20
-129.8259
 11
174.5868
 21
-126.5
  0
LINE
  8
0
  6
CONTINUOUS
 62
     7
 10
176.2868
 20
-130.2814
 11
176.2868
 21
-126.5
  0
LINE
  8
0
  6
CONTINUOUS
 62
     7
 10
179.5868
 20
-131.1656
 11
179.5868
 21
-126.5
  0
LINE
  8
0
  6
CONTINUOUS
 62
     7
 10
181.2868
 20
-131.6211
 11
181.2868
 21
-126.5
  0
ARC
  8
0
  6
CONTINUOUS
 62
     7
 10
273.0354
 20
-235.0457
 40
2.21188
 50
0.0
 51
89.99999
  0
ARC
  8
0
  6
CONTINUOUS
 62
     7
 10
291.2836
 20
-246.9346
 40
2.2119
 50
270.0
 51
0.0
  0
ARC
  8
0
  6
CONTINUOUS
 62
     7
 10
290.1776
 20
-236.1516
 40
3.31784
 50
0.0
 51
89.99999
  0
ARC
  8
0
  6
CONTINUOUS
 62
     7
 10
310.3611
 20
-236.8128
 40
2.21189
 50
295.0
 51
0.0
  0
ARC
  8
0
  6
CONTINUOUS
 62
     7
 10
310.3611
 20
-235.0457
 40
2.21188
 50
0.0
 51
89.99999
  0
ARC
  8
0
  6
CONTINUOUS
 62
     7
 10
327.5034
 20
-232.8338
 40
3.31784
 50
291.6884
 51
0.0
  0
ARC
  8
0
  6
CONTINUOUS
 62
     7
 10
326.3973
 20
-232.0834
 40
1.10595
 50
291.689
 51
0.0
  0
CIRCLE
  8
0
  6
CONTINUOUS
 62
     7
 10
-189.9368
 20
20.10001
 40
1.65
  0
ARC
  8
0
  6
CONTINUOUS
 62
     7
 10
-196.9368
 20
-28.39999
 40
0.5
 50
180.0
 51
270.0
  0
ARC
  8
0
  6
CONTINUOUS
 62
     7
 10
-182.9368
 20
-28.39999
 40
0.5
 50
270.0
 51
0.0
  0
ARC
  8
0
  6
CONTINUOUS
 62
     7
 10
-191.7368
 20
-24.39999
 40
0.5
 50
0.0
 51
89.99999
  0
ARC
  8
0
  6
CONTINUOUS
 62
     7
 10
-196.9368
 20
-23.39999
 40
0.5
 50
180.0
 51
270.0
  0
ARC
  8
0
  6
CONTINUOUS
 62
     7
 10
-190.7368
 20
-28.39999
 40
0.5
 50
180.0
 51
270.0
  0
CIRCLE
  8
0
  6
CONTINUOUS
 62
     7
 10
-186.9368
 20
-2.39999
 40
1.75
  0
CIRCLE
  8
0
  6
CONTINUOUS
 62
     7
 10
-186.9368
 20
-2.39999
 40
2.5
  0
CIRCLE
  8
0
  6
CONTINUOUS
 62
     7
 10
-195.4368
 20
1.60001
 40
1.4
  0
CIRCLE
  8
0
  6
CONTINUOUS
 62
     7
 10
-184.4368
 20
-16.39999
 40
1.4
  0
ARC
  8
0
  6
CONTINUOUS
 62
     7
 10
-184.4368
 20
-16.39999
 40
2.7
 50
42.20544
 51
317.7946
  0
ARC
  8
0
  6
CONTINUOUS
 62
     7
 10
-195.4368
 20
1.60001
 40
2.7
 50
0.0
 51
137.7946
  0
ARC
  8
0
  6
CONTINUOUS
 62
     7
 10
-195.4368
 20
1.60001
 40
2.7
 50
222.2054
 51
0.0
  0
ARC
  8
0
  6
CONTINUOUS
 62
     7
 10
-194.4368
 20
-21.29999
 40
5.0
 50
240.5077
 51
299.4923
  0
ARC
  8
0
  6
CONTINUOUS
 62
     7
 10
-196.5701
 20
-25.07182
 40
0.66667
 50
180.0
 51
240.5079
  0
ARC
  8
0
  6
CONTINUOUS
 62
     7
 10
-192.3034
 20
-25.07182
 40
0.66666
 50
299.4921
 51
0.0
  0
ARC
  8
0
  6
CONTINUOUS
 62
     7
 10
-189.9368
 20
45.72501
 40
0.5
 50
45.00062
 51
314.9994
  0
CIRCLE
  8
0
  6
CONTINUOUS
 62
     7
 10
-187.4368
 20
48.10001
 40
0.85
  0
ARC
  8
0
  6
CONTINUOUS
 62
     7
 10
-196.1368
 20
43.80002
 40
0.8
 50
89.99999
 51
180.0
  0
ARC
  8
0
  6
CONTINUOUS
 62
     7
 10
-183.7368
 20
43.80002
 40
0.8
 50
0.0
 51
89.99999
  0
ARC
  8
0
  6
CONTINUOUS
 62
     7
 10
-196.1368
 20
24.40001
 40
0.8
 50
180.0
 51
270.0
  0
ARC
  8
0
  6
CONTINUOUS
 62
     7
 10
-183.7368
 20
24.40001
 40
0.8
 50
270.0
 51
0.0
  0
ARC
  8
0
  6
CONTINUOUS
 62
     7
 10
-194.4368
 20
46.10001
 40
6.0
 50
85.2198
 51
106.1914
  0
ARC
  8
0
  6
CONTINUOUS
 62
     7
 10
-195.8868
 20
51.09375
 40
0.8
 50
106.1918
 51
180.0
  0
ARC
  8
0
  6
CONTINUOUS
 62
     7
 10
-185.4368
 20
46.10001
 40
6.0
 50
73.80862
 51
94.78019
  0
ARC
  8
0
  6
CONTINUOUS
 62
     7
 10
-183.9868
 20
51.09375
 40
0.8
 50
61.98621
 51
73.8082
  0
CIRCLE
  8
0
  6
CONTINUOUS
 62
     7
 10
-192.4368
 20
48.10001
 40
0.85
  0
ARC
  8
0
  6
CONTINUOUS
 62
     7
 10
-194.4368
 20
125.6
 40
3.0
 50
0.0
 51
89.99999
  0
ARC
  8
0
  6
CONTINUOUS
 62
     7
 10
-185.4368
 20
143.6
 40
3.0
 50
180.0
 51
270.0
  0
ARC
  8
0
  6
CONTINUOUS
 62
     7
 10
-194.4368
 20
125.6
 40
2.55
 50
186.7564
 51
173.2438
  0
ARC
  8
0
  6
CONTINUOUS
 62
     7
 10
-185.4368
 20
143.6
 40
2.55
 50
6.75641
 51
353.2436
  0
CIRCLE
  8
0
  6
CONTINUOUS
 62
     7
 10
-194.4368
 20
125.6
 40
2.25
  0
ARC
  8
0
  6
CONTINUOUS
 62
     7
 10
-193.3337
 20
125.6
 40
0.52
 50
134.9994
 51
225.0006
  0
ARC
  8
0
  6
CONTINUOUS
 62
     7
 10
-194.4368
 20
126.7031
 40
0.52
 50
225.0006
 51
314.9994
  0
ARC
  8
0
  6
CONTINUOUS
 62
     7
 10
-194.4368
 20
124.4969
 40
0.52
 50
45.0006
 51
134.9994
  0
ARC
  8
0
  6
CONTINUOUS
 62
     7
 10
-195.5399
 20
125.6
 40
0.52
 50
314.9994
 51
45.0006
  0
CIRCLE
  8
0
  6
CONTINUOUS
 62
     7
 10
-185.4368
 20
143.6
 40
2.25
  0
ARC
  8
0
  6
CONTINUOUS
 62
     7
 10
-184.3337
 20
143.6
 40
0.51999
 50
135.0
 51
225.0
  0
ARC
  8
0
  6
CONTINUOUS
 62
     7
 10
-185.4368
 20
144.7031
 40
0.51999
 50
225.0
 51
315.0
  0
ARC
  8
0
  6
CONTINUOUS
 62
     7
 10
-185.4368
 20
142.4969
 40
0.51999
 50
45.0
 51
135.0
  0
ARC
  8
0
  6
CONTINUOUS
 62
     7
 10
-186.5399
 20
143.6
 40
0.51999
 50
315.0
 51
45.0
  0
ARC
  8
0
  6
CONTINUOUS
 62
     7
 10
-182.9368
 20
146.1
 40
0.5
 50
0.0
 51
89.99999
  0
ARC
  8
0
  6
CONTINUOUS
 62
     7
 10
-196.9368
 20
146.1
 40
0.5
 50
89.99999
 51
180.0
  0
ARC
  8
0
  6
CONTINUOUS
 62
     7
 10
-183.7368
 20
113.4
 40
0.8
 50
270.0
 51
0.0
  0
ARC
  8
0
  6
CONTINUOUS
 62
     7
 10
-196.1368
 20
113.4
 40
0.8
 50
180.0
 51
270.0
  0
ARC
  8
0
  6
CONTINUOUS
 62
     7
 10
-344.9368
 20
-28.40002
 40
0.5
 50
180.0
 51
270.0
  0
ARC
  8
0
  6
CONTINUOUS
 62
     7
 10
-321.9368
 20
-28.40002
 40
0.5
 50
270.0
 51
0.0
  0
ARC
  8
0
  6
CONTINUOUS
 62
     7
 10
-327.1368
 20
-24.40002
 40
0.5
 50
89.99999
 51
180.0
  0
ARC
  8
0
  6
CONTINUOUS
 62
     7
 10
-328.1368
 20
-28.40002
 40
0.5
 50
270.0
 51
0.0
  0
ARC
  8
0
  6
CONTINUOUS
 62
     7
 10
-321.9368
 20
-23.40002
 40
0.5
 50
270.0
 51
0.0
  0
ARC
  8
0
  6
CONTINUOUS
 62
     7
 10
-324.4368
 20
-21.30002
 40
5.00001
 50
240.5075
 51
299.4925
  0
ARC
  8
0
  6
CONTINUOUS
 62
     7
 10
-326.5701
 20
-25.07184
 40
0.66666
 50
180.0
 51
240.5067
  0
ARC
  8
0
  6
CONTINUOUS
 62
     7
 10
-322.3035
 20
-25.07184
 40
0.66667
 50
299.4933
 51
0.0
  0
ARC
  8
0
  6
CONTINUOUS
 62
     7
 10
-310.4368
 20
50.09998
 40
0.5
 50
270.0
 51
89.99999
  0
ARC
  8
0
  6
CONTINUOUS
 62
     7
 10
-308.4368
 20
50.09998
 40
0.5
 50
89.99999
 51
270.0
  0
ARC
  8
0
  6
CONTINUOUS
 62
     7
 10
-312.2368
 20
43.79999
 40
0.79999
 50
0.0
 51
89.99999
  0
ARC
  8
0
  6
CONTINUOUS
 62
     7
 10
-312.2368
 20
24.39998
 40
0.8
 50
270.0
 51
0.0
  0
ARC
  8
0
  6
CONTINUOUS
 62
     7
 10
-324.4368
 20
46.09998
 40
6.0
 50
73.80876
 51
106.1912
  0
ARC
  8
0
  6
CONTINUOUS
 62
     7
 10
-322.9868
 20
51.09372
 40
0.79999
 50
0.0
 51
73.8082
  0
ARC
  8
0
  6
CONTINUOUS
 62
     7
 10
-325.8868
 20
51.09372
 40
0.8
 50
106.1918
 51
180.0
  0
ARC
  8
0
  6
CONTINUOUS
 62
     7
 10
-342.4368
 20
46.09998
 40
6.0
 50
73.80876
 51
106.1912
  0
ARC
  8
0
  6
CONTINUOUS
 62
     7
 10
-343.8868
 20
51.09372
 40
0.8
 50
106.1918
 51
118.0148
  0
ARC
  8
0
  6
CONTINUOUS
 62
     7
 10
-340.9868
 20
51.09372
 40
0.80001
 50
61.98524
 51
73.8082
  0
ARC
  8
0
  6
CONTINUOUS
 62
     7
 10
-319.4368
 20
51.09998
 40
0.5
 50
89.99999
 51
180.0
  0
ARC
  8
0
  6
CONTINUOUS
 62
     7
 10
-35.93677
 20
-28.39999
 40
0.5
 50
270.0
 51
0.0
  0
ARC
  8
0
  6
CONTINUOUS
 62
     7
 10
-58.93677
 20
-28.39999
 40
0.5
 50
180.0
 51
270.0
  0
ARC
  8
0
  6
CONTINUOUS
 62
     7
 10
-41.13676
 20
-24.39999
 40
0.5
 50
89.99999
 51
180.0
  0
ARC
  8
0
  6
CONTINUOUS
 62
     7
 10
-42.13676
 20
-28.39999
 40
0.5
 50
270.0
 51
0.0
  0
ARC
  8
0
  6
CONTINUOUS
 62
     7
 10
-35.93677
 20
-23.39999
 40
0.5
 50
270.0
 51
0.0
  0
ARC
  8
0
  6
CONTINUOUS
 62
     7
 10
-38.43677
 20
-21.29999
 40
5.0
 50
240.5076
 51
299.4923
  0
ARC
  8
0
  6
CONTINUOUS
 62
     7
 10
-40.5701
 20
-25.07182
 40
0.66667
 50
180.0
 51
240.5076
  0
ARC
  8
0
  6
CONTINUOUS
 62
     7
 10
-36.30344
 20
-25.07182
 40
0.66667
 50
299.4924
 51
0.0
  0
ARC
  8
0
  6
CONTINUOUS
 62
     7
 10
-68.63678
 20
43.80002
 40
0.8
 50
89.99999
 51
180.0
  0
ARC
  8
0
  6
CONTINUOUS
 62
     7
 10
-68.63678
 20
24.40001
 40
0.8
 50
180.0
 51
270.0
  0
ARC
  8
0
  6
CONTINUOUS
 62
     7
 10
-38.43677
 20
46.10001
 40
6.0
 50
73.80869
 51
106.1913
  0
ARC
  8
0
  6
CONTINUOUS
 62
     7
 10
-36.98676
 20
51.09375
 40
0.8
 50
0.0
 51
73.80872
  0
ARC
  8
0
  6
CONTINUOUS
 62
     7
 10
-39.88678
 20
51.09375
 40
0.8
 50
106.1913
 51
180.0
  0
ARC
  8
0
  6
CONTINUOUS
 62
     7
 10
-56.43677
 20
46.10001
 40
6.0
 50
73.80865
 51
106.1913
  0
ARC
  8
0
  6
CONTINUOUS
 62
     7
 10
-57.88678
 20
51.09375
 40
0.8
 50
106.1913
 51
118.0138
  0
ARC
  8
0
  6
CONTINUOUS
 62
     7
 10
-54.98676
 20
51.09375
 40
0.8
 50
61.98621
 51
73.80872
  0
ARC
  8
0
  6
CONTINUOUS
 62
     7
 10
-61.43677
 20
51.10001
 40
0.5
 50
0.0
 51
89.99999
  0
ARC
  8
0
  6
CONTINUOUS
 62
     7
 10
-72.43677
 20
50.10001
 40
0.5
 50
270.0
 51
89.99999
  0
ARC
  8
0
  6
CONTINUOUS
 62
     7
 10
-70.43677
 20
50.10001
 40
0.5
 50
89.99999
 51
270.0
  0
ARC
  8
0
  6
CONTINUOUS
 62
     7
 10
-194.4368
 20
-158.3999
 40
3.2
 50
270.0
 51
0.0
  0
ARC
  8
0
  6
CONTINUOUS
 62
     7
 10
-185.4368
 20
-176.3999
 40
3.2
 50
89.99999
 51
180.0
  0
ARC
  8
0
  6
CONTINUOUS
 62
     7
 10
-193.3831
 20
-166.6466
 40
0.35345
 50
0.0
 51
89.99999
  0
ARC
  8
0
  6
CONTINUOUS
 62
     7
 10
-190.467
 20
-168.5465
 40
0.35345
 50
270.0
 51
0.0
  0
ARC
  8
0
  6
CONTINUOUS
 62
     7
 10
-190.6437
 20
-166.8233
 40
0.5302
 50
0.0
 51
89.99999
  0
ARC
  8
0
  6
CONTINUOUS
 62
     7
 10
-187.4184
 20
-166.6466
 40
0.35345
 50
0.0
 51
89.99999
  0
ARC
  8
0
  6
CONTINUOUS
 62
     7
 10
-187.4184
 20
-166.929
 40
0.35346
 50
295.0008
 51
0.0
  0
ARC
  8
0
  6
CONTINUOUS
 62
     7
 10
-184.679
 20
-166.2932
 40
0.53019
 50
291.6884
 51
0.0
  0
ARC
  8
0
  6
CONTINUOUS
 62
     7
 10
-184.8558
 20
-166.1732
 40
0.17672
 50
291.6875
 51
0.0
  0
ARC
  8
0
  6
CONTINUOUS
 62
     7
 10
-196.9368
 20
-178.8999
 40
0.5
 50
180.0
 51
270.0
  0
ARC
  8
0
  6
CONTINUOUS
 62
     7
 10
-182.9368
 20
-178.8999
 40
0.5
 50
270.0
 51
0.0
  0
CIRCLE
  8
0
  6
CONTINUOUS
 62
     7
 10
-194.4368
 20
-158.3999
 40
2.8
  0
ARC
  8
0
  6
CONTINUOUS
 62
     7
 10
-195.7096
 20
-158.3999
 40
0.60001
 50
315.0
 51
45.0
  0
ARC
  8
0
  6
CONTINUOUS
 62
     7
 10
-194.4368
 20
-159.6727
 40
0.60001
 50
45.0
 51
135.0
  0
ARC
  8
0
  6
CONTINUOUS
 62
     7
 10
-194.4368
 20
-157.1271
 40
0.60001
 50
225.0
 51
315.0
  0
ARC
  8
0
  6
CONTINUOUS
 62
     7
 10
-193.164
 20
-158.3999
 40
0.60001
 50
135.0
 51
225.0
  0
CIRCLE
  8
0
  6
CONTINUOUS
 62
     7
 10
-185.4368
 20
-176.3999
 40
2.8
  0
ARC
  8
0
  6
CONTINUOUS
 62
     7
 10
-186.7096
 20
-176.3999
 40
0.60001
 50
315.0
 51
45.0
  0
ARC
  8
0
  6
CONTINUOUS
 62
     7
 10
-185.4368
 20
-177.6727
 40
0.60001
 50
45.0
 51
135.0
  0
ARC
  8
0
  6
CONTINUOUS
 62
     7
 10
-185.4368
 20
-175.1271
 40
0.60001
 50
225.0
 51
315.0
  0
ARC
  8
0
  6
CONTINUOUS
 62
     7
 10
-184.164
 20
-176.3999
 40
0.60001
 50
135.0
 51
225.0
  0
ARC
  8
0
  6
CONTINUOUS
 62
     7
 10
-196.1368
 20
-146.2
 40
0.8
 50
89.99999
 51
180.0
  0
ARC
  8
0
  6
CONTINUOUS
 62
     7
 10
-183.7368
 20
-146.2
 40
0.8
 50
0.0
 51
89.99999
  0
CIRCLE
  8
0
  6
CONTINUOUS
 62
     7
 10
177.9368
 20
18.5
 40
1.65
  0
ARC
  8
0
  6
CONTINUOUS
 62
     7
 10
170.9368
 20
-30.0
 40
0.5
 50
180.0
 51
270.0
  0
ARC
  8
0
  6
CONTINUOUS
 62
     7
 10
184.9368
 20
-30.0
 40
0.5
 50
270.0
 51
0.0
  0
ARC
  8
0
  6
CONTINUOUS
 62
     7
 10
176.1368
 20
-26.0
 40
0.5
 50
0.0
 51
89.99999
  0
ARC
  8
0
  6
CONTINUOUS
 62
     7
 10
170.9368
 20
-25.0
 40
0.5
 50
180.0
 51
270.0
  0
ARC
  8
0
  6
CONTINUOUS
 62
     7
 10
177.1368
 20
-30.0
 40
0.5
 50
180.0
 51
270.0
  0
CIRCLE
  8
0
  6
CONTINUOUS
 62
     7
 10
172.4368
 20
0.0
 40
1.4
  0
CIRCLE
  8
0
  6
CONTINUOUS
 62
     7
 10
183.4368
 20
-18.0
 40
1.4
  0
ARC
  8
0
  6
CONTINUOUS
 62
     7
 10
183.4368
 20
-18.0
 40
2.7
 50
42.20544
 51
317.7946
  0
ARC
  8
0
  6
CONTINUOUS
 62
     7
 10
172.4368
 20
0.0
 40
2.7
 50
0.0
 51
137.7946
  0
ARC
  8
0
  6
CONTINUOUS
 62
     7
 10
172.4368
 20
0.0
 40
2.7
 50
222.2054
 51
0.0
  0
ARC
  8
0
  6
CONTINUOUS
 62
     7
 10
173.4368
 20
-22.89999
 40
5.0
 50
240.5077
 51
299.4923
  0
ARC
  8
0
  6
CONTINUOUS
 62
     7
 10
171.3034
 20
-26.67183
 40
0.66667
 50
180.0
 51
240.5079
  0
ARC
  8
0
  6
CONTINUOUS
 62
     7
 10
175.5701
 20
-26.67183
 40
0.66666
 50
299.4921
 51
0.0
  0
ARC
  8
0
  6
CONTINUOUS
 62
     7
 10
177.9368
 20
44.125
 40
0.5
 50
45.00062
 51
314.9994
  0
CIRCLE
  8
0
  6
CONTINUOUS
 62
     7
 10
180.4368
 20
46.5
 40
0.85
  0
ARC
  8
0
  6
CONTINUOUS
 62
     7
 10
171.7368
 20
42.2
 40
0.8
 50
89.99999
 51
180.0
  0
ARC
  8
0
  6
CONTINUOUS
 62
     7
 10
184.1368
 20
42.2
 40
0.8
 50
0.0
 51
89.99999
  0
ARC
  8
0
  6
CONTINUOUS
 62
     7
 10
171.7368
 20
22.8
 40
0.8
 50
180.0
 51
270.0
  0
ARC
  8
0
  6
CONTINUOUS
 62
     7
 10
184.1368
 20
22.8
 40
0.8
 50
270.0
 51
0.0
  0
ARC
  8
0
  6
CONTINUOUS
 62
     7
 10
173.4368
 20
44.5
 40
6.0
 50
85.2198
 51
106.1914
  0
ARC
  8
0
  6
CONTINUOUS
 62
     7
 10
171.9868
 20
49.49376
 40
0.8
 50
106.1918
 51
180.0
  0
ARC
  8
0
  6
CONTINUOUS
 62
     7
 10
182.4368
 20
44.49998
 40
6.0
 50
73.80862
 51
94.78019
  0
ARC
  8
0
  6
CONTINUOUS
 62
     7
 10
183.8868
 20
49.49373
 40
0.8
 50
61.98621
 51
73.8082
  0
CIRCLE
  8
0
  6
CONTINUOUS
 62
     7
 10
175.4368
 20
46.5
 40
0.85
  0
ARC
  8
0
  6
CONTINUOUS
 62
     7
 10
173.4368
 20
124.0
 40
3.0
 50
0.0
 51
89.99999
  0
ARC
  8
0
  6
CONTINUOUS
 62
     7
 10
182.4368
 20
142.0
 40
3.0
 50
180.0
 51
270.0
  0
ARC
  8
0
  6
CONTINUOUS
 62
     7
 10
173.4368
 20
124.0
 40
2.55
 50
186.7564
 51
173.2438
  0
ARC
  8
0
  6
CONTINUOUS
 62
     7
 10
182.4368
 20
142.0
 40
2.55
 50
6.75641
 51
353.2436
  0
CIRCLE
  8
0
  6
CONTINUOUS
 62
     7
 10
173.4368
 20
124.0
 40
2.25
  0
ARC
  8
0
  6
CONTINUOUS
 62
     7
 10
174.5399
 20
124.0
 40
0.52
 50
134.9994
 51
225.0006
  0
ARC
  8
0
  6
CONTINUOUS
 62
     7
 10
173.4368
 20
125.1031
 40
0.52
 50
225.0006
 51
314.9994
  0
ARC
  8
0
  6
CONTINUOUS
 62
     7
 10
173.4368
 20
122.8969
 40
0.52
 50
45.0006
 51
134.9994
  0
ARC
  8
0
  6
CONTINUOUS
 62
     7
 10
172.3337
 20
124.0
 40
0.52
 50
314.9994
 51
45.0006
  0
CIRCLE
  8
0
  6
CONTINUOUS
 62
     7
 10
182.4368
 20
142.0
 40
2.25
  0
ARC
  8
0
  6
CONTINUOUS
 62
     7
 10
183.5399
 20
142.0
 40
0.51999
 50
135.0
 51
225.0
  0
ARC
  8
0
  6
CONTINUOUS
 62
     7
 10
182.4368
 20
143.1031
 40
0.51999
 50
225.0
 51
315.0
  0
ARC
  8
0
  6
CONTINUOUS
 62
     7
 10
182.4368
 20
140.8969
 40
0.51999
 50
45.0
 51
135.0
  0
ARC
  8
0
  6
CONTINUOUS
 62
     7
 10
181.3337
 20
142.0
 40
0.51999
 50
315.0
 51
45.0
  0
ARC
  8
0
  6
CONTINUOUS
 62
     7
 10
184.9368
 20
144.5
 40
0.5
 50
0.0
 51
89.99999
  0
ARC
  8
0
  6
CONTINUOUS
 62
     7
 10
170.9368
 20
144.5
 40
0.5
 50
89.99999
 51
180.0
  0
ARC
  8
0
  6
CONTINUOUS
 62
     7
 10
184.1368
 20
111.8
 40
0.8
 50
270.0
 51
0.0
  0
ARC
  8
0
  6
CONTINUOUS
 62
     7
 10
171.7368
 20
111.8
 40
0.8
 50
180.0
 51
270.0
  0
ARC
  8
0
  6
CONTINUOUS
 62
     7
 10
22.9368
 20
-30.00005
 40
0.5
 50
180.0
 51
270.0
  0
ARC
  8
0
  6
CONTINUOUS
 62
     7
 10
45.9368
 20
-30.00005
 40
0.5
 50
270.0
 51
0.0
  0
ARC
  8
0
  6
CONTINUOUS
 62
     7
 10
40.73682
 20
-26.00005
 40
0.5
 50
89.99999
 51
180.0
  0
ARC
  8
0
  6
CONTINUOUS
 62
     7
 10
39.73682
 20
-30.00005
 40
0.5
 50
270.0
 51
0.0
  0
ARC
  8
0
  6
CONTINUOUS
 62
     7
 10
45.9368
 20
-25.00005
 40
0.5
 50
270.0
 51
0.0
  0
ARC
  8
0
  6
CONTINUOUS
 62
     7
 10
43.4368
 20
-22.90004
 40
5.0
 50
240.5076
 51
299.4923
  0
ARC
  8
0
  6
CONTINUOUS
 62
     7
 10
41.30347
 20
-26.67186
 40
0.66667
 50
180.0
 51
240.5076
  0
ARC
  8
0
  6
CONTINUOUS
 62
     7
 10
45.57013
 20
-26.67186
 40
0.66667
 50
299.4924
 51
0.0
  0
ARC
  8
0
  6
CONTINUOUS
 62
     7
 10
57.4368
 20
48.49995
 40
0.5
 50
270.0
 51
89.99999
  0
ARC
  8
0
  6
CONTINUOUS
 62
     7
 10
59.4368
 20
48.49995
 40
0.5
 50
89.99999
 51
270.0
  0
ARC
  8
0
  6
CONTINUOUS
 62
     7
 10
55.63681
 20
42.19997
 40
0.8
 50
0.0
 51
89.99999
  0
ARC
  8
0
  6
CONTINUOUS
 62
     7
 10
55.63681
 20
22.79996
 40
0.8
 50
270.0
 51
0.0
  0
ARC
  8
0
  6
CONTINUOUS
 62
     7
 10
43.4368
 20
44.49995
 40
6.0
 50
73.80869
 51
106.1913
  0
ARC
  8
0
  6
CONTINUOUS
 62
     7
 10
44.88681
 20
49.4937
 40
0.8
 50
0.0
 51
73.80872
  0
ARC
  8
0
  6
CONTINUOUS
 62
     7
 10
41.98679
 20
49.4937
 40
0.8
 50
106.1913
 51
180.0
  0
ARC
  8
0
  6
CONTINUOUS
 62
     7
 10
25.4368
 20
44.49995
 40
6.0
 50
73.80865
 51
106.1913
  0
ARC
  8
0
  6
CONTINUOUS
 62
     7
 10
23.98679
 20
49.4937
 40
0.8
 50
106.1914
 51
118.0138
  0
ARC
  8
0
  6
CONTINUOUS
 62
     7
 10
26.88681
 20
49.4937
 40
0.8
 50
61.98621
 51
73.80872
  0
ARC
  8
0
  6
CONTINUOUS
 62
     7
 10
48.4368
 20
49.49995
 40
0.5
 50
89.99999
 51
180.0
  0
ARC
  8
0
  6
CONTINUOUS
 62
     7
 10
331.9368
 20
-30.00003
 40
0.5
 50
270.0
 51
0.0
  0
ARC
  8
0
  6
CONTINUOUS
 62
     7
 10
308.9368
 20
-30.00003
 40
0.5
 50
180.0
 51
270.0
  0
ARC
  8
0
  6
CONTINUOUS
 62
     7
 10
314.1368
 20
-26.00003
 40
0.5
 50
0.0
 51
89.99999
  0
ARC
  8
0
  6
CONTINUOUS
 62
     7
 10
315.1368
 20
-30.00003
 40
0.5
 50
180.0
 51
270.0
  0
ARC
  8
0
  6
CONTINUOUS
 62
     7
 10
308.9368
 20
-25.00003
 40
0.5
 50
180.0
 51
270.0
  0
ARC
  8
0
  6
CONTINUOUS
 62
     7
 10
311.4368
 20
-22.90002
 40
5.00001
 50
240.5075
 51
299.4925
  0
ARC
  8
0
  6
CONTINUOUS
 62
     7
 10
313.5702
 20
-26.67186
 40
0.66667
 50
299.4933
 51
0.0
  0
ARC
  8
0
  6
CONTINUOUS
 62
     7
 10
309.3035
 20
-26.67186
 40
0.66666
 50
180.0
 51
240.5067
  0
ARC
  8
0
  6
CONTINUOUS
 62
     7
 10
299.2368
 20
42.19997
 40
0.8
 50
89.99999
 51
180.0
  0
ARC
  8
0
  6
CONTINUOUS
 62
     7
 10
299.2368
 20
22.79997
 40
0.79999
 50
180.0
 51
270.0
  0
ARC
  8
0
  6
CONTINUOUS
 62
     7
 10
329.4368
 20
44.49997
 40
6.0
 50
73.80876
 51
106.1912
  0
ARC
  8
0
  6
CONTINUOUS
 62
     7
 10
330.8868
 20
49.49373
 40
0.79999
 50
0.0
 51
73.8082
  0
ARC
  8
0
  6
CONTINUOUS
 62
     7
 10
327.9868
 20
49.49373
 40
0.8
 50
106.1918
 51
180.0
  0
ARC
  8
0
  6
CONTINUOUS
 62
     7
 10
311.4368
 20
44.49995
 40
6.0
 50
73.80876
 51
106.1912
  0
ARC
  8
0
  6
CONTINUOUS
 62
     7
 10
309.9868
 20
49.4937
 40
0.8
 50
106.1918
 51
118.0148
  0
ARC
  8
0
  6
CONTINUOUS
 62
     7
 10
312.8868
 20
49.4937
 40
0.80001
 50
61.98524
 51
73.8082
  0
ARC
  8
0
  6
CONTINUOUS
 62
     7
 10
306.4368
 20
49.49997
 40
0.5
 50
0.0
 51
89.99999
  0
ARC
  8
0
  6
CONTINUOUS
 62
     7
 10
295.4368
 20
48.49997
 40
0.5
 50
270.0
 51
89.99999
  0
ARC
  8
0
  6
CONTINUOUS
 62
     7
 10
297.4368
 20
48.49997
 40
0.5
 50
89.99999
 51
270.0
  0
ARC
  8
0
  6
CONTINUOUS
 62
     7
 10
173.4368
 20
-160.0
 40
3.2
 50
270.0
 51
0.0
  0
ARC
  8
0
  6
CONTINUOUS
 62
     7
 10
182.4368
 20
-178.0
 40
3.2
 50
89.99999
 51
180.0
  0
ARC
  8
0
  6
CONTINUOUS
 62
     7
 10
174.4905
 20
-168.2466
 40
0.35345
 50
0.0
 51
89.99999
  0
ARC
  8
0
  6
CONTINUOUS
 62
     7
 10
177.4066
 20
-170.1465
 40
0.35345
 50
270.0
 51
0.0
  0
ARC
  8
0
  6
CONTINUOUS
 62
     7
 10
177.2299
 20
-168.4234
 40
0.5302
 50
0.0
 51
89.99999
  0
ARC
  8
0
  6
CONTINUOUS
 62
     7
 10
180.4552
 20
-168.2466
 40
0.35345
 50
0.0
 51
89.99999
  0
ARC
  8
0
  6
CONTINUOUS
 62
     7
 10
180.4552
 20
-168.529
 40
0.35346
 50
295.0008
 51
0.0
  0
ARC
  8
0
  6
CONTINUOUS
 62
     7
 10
183.1945
 20
-167.8932
 40
0.53019
 50
291.6884
 51
0.0
  0
ARC
  8
0
  6
CONTINUOUS
 62
     7
 10
183.0178
 20
-167.7733
 40
0.17672
 50
291.6875
 51
0.0
  0
ARC
  8
0
  6
CONTINUOUS
 62
     7
 10
170.9368
 20
-180.5
 40
0.5
 50
180.0
 51
270.0
  0
ARC
  8
0
  6
CONTINUOUS
 62
     7
 10
184.9368
 20
-180.5
 40
0.5
 50
270.0
 51
0.0
  0
CIRCLE
  8
0
  6
CONTINUOUS
 62
     7
 10
173.4368
 20
-160.0
 40
2.8
  0
ARC
  8
0
  6
CONTINUOUS
 62
     7
 10
172.164
 20
-160.0
 40
0.60001
 50
315.0
 51
45.0
  0
ARC
  8
0
  6
CONTINUOUS
 62
     7
 10
173.4368
 20
-161.2728
 40
0.60001
 50
45.0
 51
135.0
  0
ARC
  8
0
  6
CONTINUOUS
 62
     7
 10
173.4368
 20
-158.7272
 40
0.60001
 50
225.0
 51
315.0
  0
ARC
  8
0
  6
CONTINUOUS
 62
     7
 10
174.7096
 20
-160.0
 40
0.60001
 50
135.0
 51
225.0
  0
CIRCLE
  8
0
  6
CONTINUOUS
 62
     7
 10
182.4368
 20
-178.0
 40
2.8
  0
ARC
  8
0
  6
CONTINUOUS
 62
     7
 10
181.164
 20
-178.0
 40
0.60001
 50
315.0
 51
45.0
  0
ARC
  8
0
  6
CONTINUOUS
 62
     7
 10
182.4368
 20
-179.2728
 40
0.60001
 50
45.0
 51
135.0
  0
ARC
  8
0
  6
CONTINUOUS
 62
     7
 10
182.4368
 20
-176.7272
 40
0.60001
 50
225.0
 51
315.0
  0
ARC
  8
0
  6
CONTINUOUS
 62
     7
 10
183.7096
 20
-178.0
 40
0.60001
 50
135.0
 51
225.0
  0
ARC
  8
0
  6
CONTINUOUS
 62
     7
 10
171.7368
 20
-147.8
 40
0.8
 50
89.99999
 51
180.0
  0
ARC
  8
0
  6
CONTINUOUS
 62
     7
 10
184.1368
 20
-147.8
 40
0.8
 50
0.0
 51
89.99999
  0
TEXT
  8
0
  6
CONTINUOUS
 62
     7
 10
-350.9787
 20
200.5946
 40
8.5
  1
MODEL : 110E1-PLL
 41
0.8
  7
STANDARD
  0
TEXT
  8
0
  6
CONTINUOUS
 62
     7
 10
229.0661
 20
236.2625
 40
8.5
  1
DATE : NOV ,1989
 41
0.8
  7
STANDARD
  0
TEXT
  8
0
  6
CONTINUOUS
 62
     7
 10
-370.6519
 20
235.5575
 40
10.0
  1
110 CONNECTOR PLL
 41
0.73013
  7
STANDARD
  0
TEXT
  8
0
  6
CONTINUOUS
 62
     7
 10
19.88928
 20
200.5946
 40
8.5
  1
MODEL : A110E1-PLL
 41
0.8
  7
STANDARD
  0
TEXT
  8
0
  6
CONTINUOUS
 62
     7
 10
-185.494
 20
-7.88276
 40
2.0
  1
A
 41
0.8
  7
STANDARD
  0
ENDSEC
  0
EOF
