  0
SECTION
  2
HEADER
  9
$ACADVER
  1
AC1002
  9
$INSBASE
 10
0.0
 20
0.0
  9
$EXTMIN
 10
-370.8736
 20
-254.5585
  9
$EXTMAX
 10
370.8736
 20
254.5585
  9
$LIMMIN
 10
0.0
 20
0.0
  9
$LIMMAX
 10
12.0
 20
9.0
  9
$VIEWCTR
 10
28.6093211
 20
0.0
  9
$VIEWSIZE
 40
509.117
  9
$SNAPMODE
 70
     0
  9
$SNAPUNIT
 10
1.0
 20
1.0
  9
$SNAPBASE
 10
0.0
 20
0.0
  9
$SNAPANG
 50
0.0
  9
$SNAPSTYLE
 70
     0
  9
$SNAPISOPAIR
 70
     0
  9
$GRIDMODE
 70
     0
  9
$GRIDUNIT
 10
0.0
 20
0.0
  9
$ORTHOMODE
 70
     0
  9
$REGENMODE
 70
     1
  9
$FILLMODE
 70
     1
  9
$QTEXTMODE
 70
     0
  9
$DRAGMODE
 70
     2
  9
$LTSCALE
 40
1.0
  9
$OSMODE
 70
     0
  9
$ATTMODE
 70
     1
  9
$TEXTSIZE
 40
0.2
  9
$TRACEWID
 40
0.05
  9
$TEXTSTYLE
  7
AAA
  9
$CLAYER
  8
0
  9
$CELTYPE
  6
BYLAYER
  9
$CECOLOR
 62
   256
  9
$DIMSCALE
 40
1.0
  9
$DIMASZ
 40
0.18
  9
$DIMEXO
 40
0.0625
  9
$DIMDLI
 40
0.38
  9
$DIMRND
 40
0.0
  9
$DIMDLE
 40
0.0
  9
$DIMEXE
 40
0.18
  9
$DIMTP
 40
0.0
  9
$DIMTM
 40
0.0
  9
$DIMTXT
 40
0.18
  9
$DIMCEN
 40
0.09
  9
$DIMTSZ
 40
0.0
  9
$DIMTOL
 70
     0
  9
$DIMLIM
 70
     0
  9
$DIMTIH
 70
     1
  9
$DIMTOH
 70
     1
  9
$DIMSE1
 70
     0
  9
$DIMSE2
 70
     0
  9
$DIMTAD
 70
     0
  9
$DIMZIN
 70
     0
  9
$DIMBLK
  1

  9
$LUNITS
 70
     2
  9
$LUPREC
 70
     4
  9
$AXISMODE
 70
     0
  9
$AXISUNIT
 10
0.0
 20
0.0
  9
$SKETCHINC
 40
0.1
  9
$FILLETRAD
 40
0.0
  9
$AUNITS
 70
     0
  9
$AUPREC
 70
     0
  9
$MENU
  1
ACAD
  9
$ELEVATION
 40
0.0
  9
$THICKNESS
 40
0.0
  9
$VIEWDIR
 10
0.0
 20
0.0
 30
1.0
  9
$LIMCHECK
 70
     0
  9
$BLIPMODE
 70
     1
  9
$CHAMFERA
 40
0.0
  9
$CHAMFERB
 40
0.0
  9
$FASTZOOM
 70
     1
  9
$SKPOLY
 70
     0
  9
$TDCREATE
 40
2447872.4500694939
  9
$TDUPDATE
 40
2447872.4500694939
  9
$TDINDWG
 40
0.0020833333
  9
$TDUSRTIMER
 40
0.0020833333
  9
$USRTIMER
 70
     1
  9
$ANGBASE
 50
0.0
  9
$ANGDIR
 70
     0
  9
$PDMODE
 70
     0
  9
$PDSIZE
 40
0.0
  9
$PLINEWID
 40
0.0
  9
$COORDS
 70
     0
  9
$USERI1
 70
     0
  9
$USERI2
 70
     0
  9
$USERI3
 70
     0
  9
$USERI4
 70
     0
  9
$USERI5
 70
     0
  9
$USERR1
 40
0.0
  9
$USERR2
 40
0.0
  9
$USERR3
 40
0.0
  9
$USERR4
 40
0.0
  9
$USERR5
 40
0.0
  0
ENDSEC
  0
SECTION
  2
TABLES
  0
TABLE
  2
LTYPE
 70
     3
  0
LTYPE
  2
CONTINUOUS
 70
    64
  3
SOLID
 72
    65
 73
     0
 40
0.0
  0
LTYPE
  2
CENTER
 70
    64
  3
CENTER
 72
    65
 73
     4
 40
2.0
 49
1.25
 49
-0.25
 49
0.25
 49
-0.25
  0
LTYPE
  2
PHANTOM
 70
    64
  3
PHANTOM
 72
    65
 73
     6
 40
2.5
 49
1.25
 49
-0.25
 49
0.25
 49
-0.25
 49
0.25
 49
-0.25
  0
ENDTAB
  0
TABLE
  2
LAYER
 70
     1
  0
LAYER
  2
0
 70
    64
 62
     7
  6
CONTINUOUS
  0
ENDTAB
  0
TABLE
  2
STYLE
 70
     2
  0
STYLE
  2
AAA
 70
     0
 40
0.0
 41
1.0
 50
0.0
 71
     0
 42
0.2
  3
TXT
  4

  0
STYLE
  2
STANDARD
 70
    64
 40
0.0
 41
1.0
 50
0.0
 71
     0
 42
0.2
  3
TXT
  4
BIGFONT
  0
ENDTAB
  0
TABLE
  2
VIEW
 70
     0
  0
ENDTAB
  0
ENDSEC
  0
SECTION
  2
BLOCKS
  0
ENDSEC
  0
SECTION
  2
ENTITIES
  0
POINT
  8
0
  6
CONTINUOUS
 62
     7
 10
-195.4368
 20
145.0
  0
POINT
  8
0
  6
CONTINUOUS
 62
     7
 10
-182.4368
 20
145.0
  0
POINT
  8
0
  6
CONTINUOUS
 62
     7
 10
-195.4368
 20
0.0
  0
POINT
  8
0
  6
CONTINUOUS
 62
     7
 10
-182.4368
 20
0.0
  0
POINT
  8
0
  6
CONTINUOUS
 62
     7
 10
-189.9368
 20
18.5
  0
POINT
  8
0
  6
CONTINUOUS
 62
     7
 10
-186.9368
 20
-4.0
  0
POINT
  8
0
  6
CONTINUOUS
 62
     7
 10
-195.4368
 20
-180.9999
  0
POINT
  8
0
  6
CONTINUOUS
 62
     7
 10
-182.4368
 20
-180.9999
  0
POINT
  8
0
  6
CONTINUOUS
 62
     7
 10
-189.9368
 20
-156.9999
  0
POINT
  8
0
  6
CONTINUOUS
 62
     7
 10
-35.43675
 20
0.0
  0
POINT
  8
0
  6
CONTINUOUS
 62
     7
 10
-59.43675
 20
18.5
  0
POINT
  8
0
  6
CONTINUOUS
 62
     7
 10
-345.4368
 20
-0.00003
  0
POINT
  8
0
  6
CONTINUOUS
 62
     7
 10
-321.4368
 20
-0.00003
  0
POINT
  8
0
  6
CONTINUOUS
 62
     7
 10
-321.4368
 20
18.49997
  0
POINT
  8
0
  6
CONTINUOUS
 62
     7
 10
172.4368
 20
145.0
  0
POINT
  8
0
  6
CONTINUOUS
 62
     7
 10
185.4368
 20
145.0
  0
POINT
  8
0
  6
CONTINUOUS
 62
     7
 10
172.4368
 20
0.0
  0
POINT
  8
0
  6
CONTINUOUS
 62
     7
 10
185.4368
 20
0.0
  0
POINT
  8
0
  6
CONTINUOUS
 62
     7
 10
177.9368
 20
18.5
  0
POINT
  8
0
  6
CONTINUOUS
 62
     7
 10
332.4368
 20
-0.00003
  0
POINT
  8
0
  6
CONTINUOUS
 62
     7
 10
308.4368
 20
18.49997
  0
POINT
  8
0
  6
CONTINUOUS
 62
     7
 10
46.4368
 20
-0.00005
  0
POINT
  8
0
  6
CONTINUOUS
 62
     7
 10
22.4368
 20
-0.00005
  0
POINT
  8
0
  6
CONTINUOUS
 62
     7
 10
46.4368
 20
18.49995
  0
POINT
  8
0
  6
CONTINUOUS
 62
     7
 10
172.4368
 20
-181.0
  0
POINT
  8
0
  6
CONTINUOUS
 62
     7
 10
185.4368
 20
-181.0
  0
POINT
  8
0
  6
CONTINUOUS
 62
     7
 10
177.9368
 20
-157.0
  0
LINE
  8
0
  6
CONTINUOUS
 62
     7
 10
218.3292
 20
-225.9564
 11
370.8736
 21
-225.9564
  0
LINE
  8
0
  6
CONTINUOUS
 62
     7
 10
-218.3292
 20
225.9564
 11
-218.3292
 21
254.5585
  0
LINE
  8
0
  6
CONTINUOUS
 62
     7
 10
-370.8736
 20
225.9564
 11
-218.3292
 21
225.9564
  0
LINE
  8
0
  6
CONTINUOUS
 62
     7
 10
-370.8736
 20
254.5585
 11
370.8736
 21
254.5585
  0
LINE
  8
0
  6
CONTINUOUS
 62
     7
 10
-370.8736
 20
-254.5585
 11
370.8736
 21
-254.5585
  0
LINE
  8
0
  6
CONTINUOUS
 62
     7
 10
370.8736
 20
254.5585
 11
370.8736
 21
-254.5585
  0
LINE
  8
0
  6
CONTINUOUS
 62
     7
 10
-370.8736
 20
-254.5585
 11
-370.8736
 21
254.5585
  0
LINE
  8
0
  6
CONTINUOUS
 62
     7
 10
218.3292
 20
-225.9564
 11
218.3292
 21
-254.5585
  0
LINE
  8
0
  6
CONTINUOUS
 62
     7
 10
218.3292
 20
254.5585
 11
218.3292
 21
225.9564
  0
LINE
  8
0
  6
CONTINUOUS
 62
     7
 10
218.3292
 20
225.9564
 11
370.8736
 21
225.9564
  0
LINE
  8
0
  6
CONTINUOUS
 62
     7
 10
258.3816
 20
-232.8337
 11
258.3816
 21
-236.1516
  0
LINE
  8
0
  6
CONTINUOUS
 62
     7
 10
258.3816
 20
-236.1516
 11
270.8235
 21
-236.1516
  0
LINE
  8
0
  6
CONTINUOUS
 62
     7
 10
258.3816
 20
-249.1465
 11
275.2473
 21
-249.1465
  0
LINE
  8
0
  6
CONTINUOUS
 62
     7
 10
258.3816
 20
-245.8286
 11
270.8235
 21
-245.8286
  0
LINE
  8
0
  6
CONTINUOUS
 62
     7
 10
258.3816
 20
-232.8337
 11
273.0354
 21
-232.8337
  0
LINE
  8
0
  6
CONTINUOUS
 62
     7
 10
270.8235
 20
-236.1516
 11
270.8235
 21
-245.8286
  0
LINE
  8
0
  6
CONTINUOUS
 62
     7
 10
275.2473
 20
-235.0457
 11
275.2473
 21
-249.1465
  0
LINE
  8
0
  6
CONTINUOUS
 62
     7
 10
258.3816
 20
-245.8286
 11
258.3816
 21
-249.1465
  0
LINE
  8
0
  6
CONTINUOUS
 62
     7
 10
293.4954
 20
-236.1516
 11
293.4954
 21
-246.9346
  0
LINE
  8
0
  6
CONTINUOUS
 62
     7
 10
277.7357
 20
-232.8337
 11
277.7357
 21
-236.1516
  0
LINE
  8
0
  6
CONTINUOUS
 62
     7
 10
293.9378
 20
-232.585
 11
295.5138
 21
-232.585
  0
LINE
  8
0
  6
CONTINUOUS
 62
     7
 10
293.9378
 20
-230.373
 11
295.5138
 21
-230.373
  0
LINE
  8
0
  6
CONTINUOUS
 62
     7
 10
295.5138
 20
-230.373
 11
295.5138
 21
-232.585
  0
LINE
  8
0
  6
CONTINUOUS
 62
     7
 10
293.9378
 20
-230.373
 11
293.9378
 21
-232.585
  0
LINE
  8
0
  6
CONTINUOUS
 62
     7
 10
293.1083
 20
-230.373
 11
293.1083
 21
-232.585
  0
LINE
  8
0
  6
CONTINUOUS
 62
     7
 10
282.7661
 20
-230.373
 11
286.2009
 21
-230.373
  0
LINE
  8
0
  6
CONTINUOUS
 62
     7
 10
285.5413
 20
-232.8335
 11
286.2006
 21
-230.3727
  0
LINE
  8
0
  6
CONTINUOUS
 62
     7
 10
282.1067
 20
-232.8337
 11
282.766
 21
-230.373
  0
LINE
  8
0
  6
CONTINUOUS
 62
     7
 10
285.5416
 20
-232.8337
 11
290.1776
 21
-232.8337
  0
LINE
  8
0
  6
CONTINUOUS
 62
     7
 10
284.6526
 20
-236.1516
 11
289.0716
 21
-236.1516
  0
LINE
  8
0
  6
CONTINUOUS
 62
     7
 10
286.6429
 20
-249.1465
 11
291.2836
 21
-249.1465
  0
LINE
  8
0
  6
CONTINUOUS
 62
     7
 10
285.7537
 20
-245.8286
 11
286.6427
 21
-249.1463
  0
LINE
  8
0
  6
CONTINUOUS
 62
     7
 10
285.7538
 20
-245.8286
 11
289.0716
 21
-245.8286
  0
LINE
  8
0
  6
CONTINUOUS
 62
     7
 10
281.1707
 20
-249.1466
 11
284.6527
 21
-236.1517
  0
LINE
  8
0
  6
CONTINUOUS
 62
     7
 10
277.7357
 20
-236.1516
 11
281.2177
 21
-236.1516
  0
LINE
  8
0
  6
CONTINUOUS
 62
     7
 10
277.7354
 20
-249.1462
 11
281.2175
 21
-236.1513
  0
LINE
  8
0
  6
CONTINUOUS
 62
     7
 10
277.7357
 20
-249.1465
 11
281.1706
 21
-249.1465
  0
LINE
  8
0
  6
CONTINUOUS
 62
     7
 10
277.7357
 20
-232.8337
 11
282.1067
 21
-232.8337
  0
LINE
  8
0
  6
CONTINUOUS
 62
     7
 10
289.0716
 20
-236.1516
 11
289.0716
 21
-245.8286
  0
LINE
  8
0
  6
CONTINUOUS
 62
     7
 10
291.5323
 20
-230.373
 11
293.1083
 21
-230.373
  0
LINE
  8
0
  6
CONTINUOUS
 62
     7
 10
291.5323
 20
-232.585
 11
293.1083
 21
-232.585
  0
LINE
  8
0
  6
CONTINUOUS
 62
     7
 10
291.5323
 20
-230.373
 11
291.5323
 21
-232.585
  0
LINE
  8
0
  6
CONTINUOUS
 62
     7
 10
301.5135
 20
-230.373
 11
305.9373
 21
-230.373
  0
LINE
  8
0
  6
CONTINUOUS
 62
     7
 10
308.3423
 20
-240.1951
 11
311.2962
 21
-238.8176
  0
LINE
  8
0
  6
CONTINUOUS
 62
     7
 10
305.9373
 20
-242.7344
 11
305.9373
 21
-249.1465
  0
LINE
  8
0
  6
CONTINUOUS
 62
     7
 10
301.5135
 20
-243.379
 11
301.5135
 21
-249.1465
  0
LINE
  8
0
  6
CONTINUOUS
 62
     7
 10
305.9373
 20
-232.8337
 11
310.3611
 21
-232.8337
  0
LINE
  8
0
  6
CONTINUOUS
 62
     7
 10
305.9373
 20
-230.373
 11
305.9373
 21
-232.8337
  0
LINE
  8
0
  6
CONTINUOUS
 62
     7
 10
301.5135
 20
-230.373
 11
301.5135
 21
-232.8337
  0
LINE
  8
0
  6
CONTINUOUS
 62
     7
 10
312.573
 20
-235.0457
 11
312.573
 21
-236.8128
  0
LINE
  8
0
  6
CONTINUOUS
 62
     7
 10
308.3424
 20
-240.195
 11
312.5734
 21
-242.168
  0
LINE
  8
0
  6
CONTINUOUS
 62
     7
 10
305.9373
 20
-242.7343
 11
312.5731
 21
-245.8286
  0
LINE
  8
0
  6
CONTINUOUS
 62
     7
 10
296.2603
 20
-242.1678
 11
296.2603
 21
-245.8286
  0
LINE
  8
0
  6
CONTINUOUS
 62
     7
 10
296.2607
 20
-242.1682
 11
309.1626
 21
-236.1519
  0
LINE
  8
0
  6
CONTINUOUS
 62
     7
 10
296.2603
 20
-245.8286
 11
301.5136
 21
-243.3789
  0
LINE
  8
0
  6
CONTINUOUS
 62
     7
 10
312.573
 20
-242.1678
 11
312.573
 21
-245.8286
  0
LINE
  8
0
  6
CONTINUOUS
 62
     7
 10
296.2603
 20
-232.8337
 11
296.2603
 21
-236.1516
  0
LINE
  8
0
  6
CONTINUOUS
 62
     7
 10
301.5135
 20
-249.1465
 11
305.9373
 21
-249.1465
  0
LINE
  8
0
  6
CONTINUOUS
 62
     7
 10
296.2603
 20
-236.1516
 11
309.1621
 21
-236.1516
  0
LINE
  8
0
  6
CONTINUOUS
 62
     7
 10
296.2603
 20
-232.8337
 11
301.5135
 21
-232.8337
  0
LINE
  8
0
  6
CONTINUOUS
 62
     7
 10
327.504
 20
-236.4047
 11
328.73
 21
-235.9171
  0
LINE
  8
0
  6
CONTINUOUS
 62
     7
 10
327.5034
 20
-236.4044
 11
327.5034
 21
-249.1465
  0
LINE
  8
0
  6
CONTINUOUS
 62
     7
 10
323.0795
 20
-249.1465
 11
327.5034
 21
-249.1465
  0
LINE
  8
0
  6
CONTINUOUS
 62
     7
 10
313.9553
 20
-241.7925
 11
323.0794
 21
-238.1637
  0
LINE
  8
0
  6
CONTINUOUS
 62
     7
 10
313.9555
 20
-238.222
 11
326.8062
 21
-233.1111
  0
LINE
  8
0
  6
CONTINUOUS
 62
     7
 10
323.0795
 20
-238.1638
 11
323.0795
 21
-249.1465
  0
LINE
  8
0
  6
CONTINUOUS
 62
     7
 10
327.5034
 20
-231.3684
 11
327.5034
 21
-232.0834
  0
LINE
  8
0
  6
CONTINUOUS
 62
     7
 10
330.8211
 20
-231.3684
 11
330.8211
 21
-232.8338
  0
LINE
  8
0
  6
CONTINUOUS
 62
     7
 10
313.9554
 20
-238.2219
 11
313.9554
 21
-241.7925
  0
LINE
  8
0
  6
CONTINUOUS
 62
     7
 10
327.5034
 20
-231.3684
 11
330.8211
 21
-231.3684
  0
LINE
  8
0
  6
CONTINUOUS
 62
     7
 10
0.0
 20
254.5585
 11
0.0
 21
-254.5585
  0
LINE
  8
0
  6
CONTINUOUS
 62
     7
 10
170.4368
 20
-163.1999
 11
173.4368
 21
-163.1999
  0
LINE
  8
0
  6
CONTINUOUS
 62
     7
 10
182.4368
 20
-174.8
 11
185.4368
 21
-174.8
  0
LINE
  8
0
  6
CONTINUOUS
 62
     7
 10
176.6368
 20
-160.0
 11
176.6368
 21
-157.0
  0
LINE
  8
0
  6
CONTINUOUS
 62
     7
 10
179.2368
 20
-178.0
 11
179.2368
 21
-181.0
  0
LINE
  8
0
  6
CENTER
 62
     2
 10
168.9368
 20
-169.0
 11
186.9368
 21
-169.0
  0
LINE
  8
0
  6
CENTER
 62
     2
 10
177.9368
 20
-144.1858
 11
177.9368
 21
-183.0
  0
LINE
  8
0
  6
CONTINUOUS
 62
     7
 10
171.4368
 20
-167.0
 11
184.4368
 21
-167.0
  0
LINE
  8
0
  6
CONTINUOUS
 62
     7
 10
171.4368
 20
-171.0
 11
184.4368
 21
-171.0
  0
LINE
  8
0
  6
CONTINUOUS
 62
     7
 10
184.4368
 20
-167.0
 11
184.4368
 21
-171.0
  0
LINE
  8
0
  6
CONTINUOUS
 62
     7
 10
171.4368
 20
-167.0
 11
171.4368
 21
-171.0
  0
LINE
  8
0
  6
CONTINUOUS
 62
     7
 10
172.1489
 20
-169.9698
 11
174.1371
 21
-169.9698
  0
LINE
  8
0
  6
CONTINUOUS
 62
     7
 10
172.1489
 20
-170.5
 11
174.844
 21
-170.5
  0
LINE
  8
0
  6
CONTINUOUS
 62
     7
 10
172.1489
 20
-168.4234
 11
174.1371
 21
-168.4234
  0
LINE
  8
0
  6
CONTINUOUS
 62
     7
 10
172.1489
 20
-167.8932
 11
172.1489
 21
-168.4234
  0
LINE
  8
0
  6
CONTINUOUS
 62
     7
 10
174.844
 20
-168.2466
 11
174.844
 21
-170.5
  0
LINE
  8
0
  6
CONTINUOUS
 62
     7
 10
174.1371
 20
-168.4234
 11
174.1371
 21
-169.9698
  0
LINE
  8
0
  6
CONTINUOUS
 62
     7
 10
175.2416
 20
-167.8932
 11
175.2416
 21
-168.4234
  0
LINE
  8
0
  6
CONTINUOUS
 62
     7
 10
177.7601
 20
-168.4234
 11
177.7601
 21
-170.1465
  0
LINE
  8
0
  6
CONTINUOUS
 62
     7
 10
177.0531
 20
-168.4234
 11
177.0531
 21
-169.9698
  0
LINE
  8
0
  6
CONTINUOUS
 62
     7
 10
172.1489
 20
-169.9698
 11
172.1489
 21
-170.5
  0
LINE
  8
0
  6
CONTINUOUS
 62
     7
 10
175.2416
 20
-167.8932
 11
175.9401
 21
-167.8932
  0
LINE
  8
0
  6
CONTINUOUS
 62
     7
 10
175.2416
 20
-170.5
 11
175.7905
 21
-170.5
  0
LINE
  8
0
  6
CONTINUOUS
 62
     7
 10
175.2418
 20
-170.5
 11
175.7983
 21
-168.4234
  0
LINE
  8
0
  6
CONTINUOUS
 62
     7
 10
175.2416
 20
-168.4234
 11
175.7981
 21
-168.4234
  0
LINE
  8
0
  6
CONTINUOUS
 62
     7
 10
175.7908
 20
-170.5001
 11
176.3472
 21
-168.4235
  0
LINE
  8
0
  6
CONTINUOUS
 62
     7
 10
176.5229
 20
-169.9698
 11
177.0531
 21
-169.9698
  0
LINE
  8
0
  6
CONTINUOUS
 62
     7
 10
176.5229
 20
-169.9698
 11
176.6649
 21
-170.5
  0
LINE
  8
0
  6
CONTINUOUS
 62
     7
 10
176.665
 20
-170.5
 11
177.4066
 21
-170.5
  0
LINE
  8
0
  6
CONTINUOUS
 62
     7
 10
176.347
 20
-168.4234
 11
177.0531
 21
-168.4234
  0
LINE
  8
0
  6
CONTINUOUS
 62
     7
 10
176.489
 20
-167.8932
 11
177.2299
 21
-167.8932
  0
LINE
  8
0
  6
CONTINUOUS
 62
     7
 10
175.9405
 20
-167.8933
 11
176.0458
 21
-167.5001
  0
LINE
  8
0
  6
CONTINUOUS
 62
     7
 10
176.489
 20
-167.8932
 11
176.5944
 21
-167.4999
  0
LINE
  8
0
  6
CONTINUOUS
 62
     7
 10
178.2019
 20
-167.8932
 11
179.0414
 21
-167.8932
  0
LINE
  8
0
  6
CONTINUOUS
 62
     7
 10
178.2019
 20
-168.4234
 11
180.2636
 21
-168.4234
  0
LINE
  8
0
  6
CONTINUOUS
 62
     7
 10
179.0414
 20
-170.5
 11
179.7483
 21
-170.5
  0
LINE
  8
0
  6
CONTINUOUS
 62
     7
 10
178.2019
 20
-167.8932
 11
178.2019
 21
-168.4234
  0
LINE
  8
0
  6
CONTINUOUS
 62
     7
 10
180.8087
 20
-169.3848
 11
180.8087
 21
-169.9698
  0
LINE
  8
0
  6
CONTINUOUS
 62
     7
 10
178.202
 20
-169.97
 11
179.0415
 21
-169.5785
  0
LINE
  8
0
  6
CONTINUOUS
 62
     7
 10
178.2019
 20
-169.3849
 11
180.2636
 21
-168.4235
  0
LINE
  8
0
  6
CONTINUOUS
 62
     7
 10
178.2019
 20
-169.3848
 11
178.2019
 21
-169.9698
  0
LINE
  8
0
  6
CONTINUOUS
 62
     7
 10
179.7483
 20
-169.4753
 11
180.8087
 21
-169.9697
  0
LINE
  8
0
  6
CONTINUOUS
 62
     7
 10
180.1326
 20
-169.0695
 11
180.8087
 21
-169.3848
  0
LINE
  8
0
  6
CONTINUOUS
 62
     7
 10
180.8087
 20
-168.2466
 11
180.8087
 21
-168.529
  0
LINE
  8
0
  6
CONTINUOUS
 62
     7
 10
179.0414
 20
-167.5
 11
179.0414
 21
-167.8932
  0
LINE
  8
0
  6
CONTINUOUS
 62
     7
 10
179.7483
 20
-167.5
 11
179.7483
 21
-167.8932
  0
LINE
  8
0
  6
CONTINUOUS
 62
     7
 10
179.7483
 20
-167.8932
 11
180.4552
 21
-167.8932
  0
LINE
  8
0
  6
CONTINUOUS
 62
     7
 10
179.0414
 20
-169.5783
 11
179.0414
 21
-170.5
  0
LINE
  8
0
  6
CONTINUOUS
 62
     7
 10
179.7483
 20
-169.4753
 11
179.7483
 21
-170.5
  0
LINE
  8
0
  6
CONTINUOUS
 62
     7
 10
180.1327
 20
-169.0697
 11
180.6047
 21
-168.8495
  0
LINE
  8
0
  6
CONTINUOUS
 62
     7
 10
183.1945
 20
-167.659
 11
183.7247
 21
-167.659
  0
LINE
  8
0
  6
CONTINUOUS
 62
     7
 10
181.0296
 20
-168.7542
 11
181.0296
 21
-169.3248
  0
LINE
  8
0
  6
CONTINUOUS
 62
     7
 10
183.7247
 20
-167.659
 11
183.7247
 21
-167.8932
  0
LINE
  8
0
  6
CONTINUOUS
 62
     7
 10
183.1945
 20
-167.659
 11
183.1945
 21
-167.7733
  0
LINE
  8
0
  6
CONTINUOUS
 62
     7
 10
182.4876
 20
-168.7449
 11
182.4876
 21
-170.5
  0
LINE
  8
0
  6
CONTINUOUS
 62
     7
 10
181.0297
 20
-168.7543
 11
183.0832
 21
-167.9375
  0
LINE
  8
0
  6
CONTINUOUS
 62
     7
 10
181.0296
 20
-169.3247
 11
182.4876
 21
-168.7448
  0
LINE
  8
0
  6
CONTINUOUS
 62
     7
 10
182.4876
 20
-170.5
 11
183.1945
 21
-170.5
  0
LINE
  8
0
  6
CONTINUOUS
 62
     7
 10
183.1945
 20
-168.4638
 11
183.1945
 21
-170.5
  0
LINE
  8
0
  6
CONTINUOUS
 62
     7
 10
183.1945
 20
-168.4637
 11
183.3905
 21
-168.3858
  0
LINE
  8
0
  6
CONTINUOUS
 62
     7
 10
176.0455
 20
-167.5
 11
176.5944
 21
-167.5
  0
LINE
  8
0
  6
CONTINUOUS
 62
     7
 10
177.4729
 20
-167.5
 11
177.6989
 21
-167.5
  0
LINE
  8
0
  6
CONTINUOUS
 62
     7
 10
179.0414
 20
-167.5
 11
179.7483
 21
-167.5
  0
LINE
  8
0
  6
CONTINUOUS
 62
     7
 10
177.4729
 20
-167.8534
 11
177.6989
 21
-167.8534
  0
LINE
  8
0
  6
CONTINUOUS
 62
     7
 10
177.4729
 20
-167.5
 11
177.4729
 21
-167.8534
  0
LINE
  8
0
  6
CONTINUOUS
 62
     7
 10
177.6989
 20
-167.5
 11
177.6989
 21
-167.8534
  0
LINE
  8
0
  6
CONTINUOUS
 62
     7
 10
177.8566
 20
-167.5
 11
177.8566
 21
-167.8534
  0
LINE
  8
0
  6
CONTINUOUS
 62
     7
 10
178.0826
 20
-167.5
 11
178.0826
 21
-167.8534
  0
LINE
  8
0
  6
CONTINUOUS
 62
     7
 10
177.8566
 20
-167.5
 11
178.0826
 21
-167.5
  0
LINE
  8
0
  6
CONTINUOUS
 62
     7
 10
177.8566
 20
-167.8534
 11
178.0826
 21
-167.8534
  0
LINE
  8
0
  6
CONTINUOUS
 62
     7
 10
185.4368
 20
-180.5
 11
185.4368
 21
-157.0
  0
LINE
  8
0
  6
CONTINUOUS
 62
     7
 10
170.4368
 20
-180.5
 11
170.4368
 21
-157.0
  0
LINE
  8
0
  6
CONTINUOUS
 62
     7
 10
170.9368
 20
-181.0
 11
184.9368
 21
-181.0
  0
LINE
  8
0
  6
CONTINUOUS
 62
     7
 10
170.4368
 20
-157.0
 11
185.4368
 21
-157.0
  0
LINE
  8
0
  6
CONTINUOUS
 62
     7
 10
172.1489
 20
-167.8932
 11
174.4905
 21
-167.8932
  0
LINE
  8
0
  6
CONTINUOUS
 62
     7
 10
177.7601
 20
-168.4234
 11
177.7601
 21
-170.1465
  0
LINE
  8
0
  6
CONTINUOUS
 62
     7
 10
176.665
 20
-170.5
 11
177.4066
 21
-170.5
  0
LINE
  8
0
  6
CONTINUOUS
 62
     7
 10
176.489
 20
-167.8932
 11
177.2299
 21
-167.8932
  0
LINE
  8
0
  6
CONTINUOUS
 62
     7
 10
180.8087
 20
-168.2466
 11
180.8087
 21
-168.529
  0
LINE
  8
0
  6
CONTINUOUS
 62
     7
 10
183.1945
 20
-167.659
 11
183.7247
 21
-167.659
  0
LINE
  8
0
  6
CONTINUOUS
 62
     7
 10
183.7247
 20
-167.659
 11
183.7247
 21
-167.8932
  0
LINE
  8
0
  6
CONTINUOUS
 62
     7
 10
183.1945
 20
-167.659
 11
183.1945
 21
-167.7733
  0
LINE
  8
0
  6
CONTINUOUS
 62
     7
 10
181.0297
 20
-168.7543
 11
183.0832
 21
-167.9375
  0
LINE
  8
0
  6
CONTINUOUS
 62
     7
 10
183.1945
 20
-168.4638
 11
183.1945
 21
-170.5
  0
LINE
  8
0
  6
CONTINUOUS
 62
     7
 10
183.1945
 20
-168.4635
 11
183.3904
 21
-168.3855
  0
LINE
  8
0
  6
CENTER
 62
     2
 10
173.4368
 20
-164.1789
 11
173.4368
 21
-155.832
  0
LINE
  8
0
  6
CENTER
 62
     2
 10
169.4045
 20
-160.0
 11
177.3466
 21
-160.0
  0
LINE
  8
0
  6
CONTINUOUS
 62
     7
 10
172.5884
 20
-161.2728
 11
172.1641
 21
-160.8485
  0
LINE
  8
0
  6
CONTINUOUS
 62
     7
 10
174.7097
 20
-159.1514
 11
174.2854
 21
-158.7271
  0
LINE
  8
0
  6
CONTINUOUS
 62
     7
 10
174.2855
 20
-161.2728
 11
173.8612
 21
-160.8485
  0
LINE
  8
0
  6
CONTINUOUS
 62
     7
 10
174.7097
 20
-160.8484
 11
174.2854
 21
-160.4242
  0
LINE
  8
0
  6
CONTINUOUS
 62
     7
 10
174.2854
 20
-161.2728
 11
174.7096
 21
-160.8485
  0
LINE
  8
0
  6
CONTINUOUS
 62
     7
 10
172.1641
 20
-159.1515
 11
172.5883
 21
-158.7273
  0
LINE
  8
0
  6
CONTINUOUS
 62
     7
 10
172.5884
 20
-161.2728
 11
173.0126
 21
-160.8486
  0
LINE
  8
0
  6
CONTINUOUS
 62
     7
 10
172.1642
 20
-160.8486
 11
172.5885
 21
-160.4244
  0
LINE
  8
0
  6
CONTINUOUS
 62
     7
 10
172.5884
 20
-159.5757
 11
172.1641
 21
-159.1514
  0
LINE
  8
0
  6
CONTINUOUS
 62
     7
 10
173.0126
 20
-159.1514
 11
172.5884
 21
-158.7271
  0
LINE
  8
0
  6
CONTINUOUS
 62
     7
 10
174.2854
 20
-159.5758
 11
174.7097
 21
-159.1515
  0
LINE
  8
0
  6
CONTINUOUS
 62
     7
 10
173.8613
 20
-159.1516
 11
174.2855
 21
-158.7273
  0
LINE
  8
0
  6
CENTER
 62
     2
 10
182.4368
 20
-182.1789
 11
182.4368
 21
-173.832
  0
LINE
  8
0
  6
CENTER
 62
     2
 10
178.4045
 20
-178.0
 11
186.3465
 21
-178.0
  0
LINE
  8
0
  6
CONTINUOUS
 62
     7
 10
181.5884
 20
-179.2727
 11
181.1641
 21
-178.8485
  0
LINE
  8
0
  6
CONTINUOUS
 62
     7
 10
183.7096
 20
-177.1514
 11
183.2854
 21
-176.7271
  0
LINE
  8
0
  6
CONTINUOUS
 62
     7
 10
183.2854
 20
-179.2727
 11
182.8611
 21
-178.8484
  0
LINE
  8
0
  6
CONTINUOUS
 62
     7
 10
183.7097
 20
-178.8485
 11
183.2854
 21
-178.4242
  0
LINE
  8
0
  6
CONTINUOUS
 62
     7
 10
183.2854
 20
-179.2729
 11
183.7097
 21
-178.8486
  0
LINE
  8
0
  6
CONTINUOUS
 62
     7
 10
181.1641
 20
-177.1515
 11
181.5884
 21
-176.7273
  0
LINE
  8
0
  6
CONTINUOUS
 62
     7
 10
181.5884
 20
-179.2729
 11
182.0126
 21
-178.8486
  0
LINE
  8
0
  6
CONTINUOUS
 62
     7
 10
181.1641
 20
-178.8486
 11
181.5884
 21
-178.4243
  0
LINE
  8
0
  6
CONTINUOUS
 62
     7
 10
181.5883
 20
-177.5756
 11
181.1641
 21
-177.1514
  0
LINE
  8
0
  6
CONTINUOUS
 62
     7
 10
182.0126
 20
-177.1514
 11
181.5884
 21
-176.7272
  0
LINE
  8
0
  6
CONTINUOUS
 62
     7
 10
183.2854
 20
-177.5758
 11
183.7097
 21
-177.1516
  0
LINE
  8
0
  6
CONTINUOUS
 62
     7
 10
182.8612
 20
-177.1515
 11
183.2854
 21
-176.7273
  0
LINE
  8
0
  6
CONTINUOUS
 62
     7
 10
170.9368
 20
-157.0
 11
170.9368
 21
-147.8
  0
LINE
  8
0
  6
CONTINUOUS
 62
     7
 10
171.7368
 20
-147.0
 11
184.1368
 21
-147.0
  0
LINE
  8
0
  6
CONTINUOUS
 62
     7
 10
184.9368
 20
-157.0
 11
184.9368
 21
-147.8
  0
LINE
  8
0
  6
CONTINUOUS
 62
     7
 10
332.4368
 20
21.99997
 11
299.2368
 21
21.99997
  0
LINE
  8
0
  6
CONTINUOUS
 62
     7
 10
332.4368
 20
48.19997
 11
332.4368
 21
-30.00003
  0
LINE
  8
0
  6
CONTINUOUS
 62
     7
 10
332.4368
 20
4.99997
 11
308.4368
 21
4.99997
  0
LINE
  8
0
  6
CENTER
 62
     2
 10
320.4368
 20
53.19997
 11
320.4368
 21
-32.80003
  0
LINE
  8
0
  6
CONTINUOUS
 62
     7
 10
308.4368
 20
48.19997
 11
308.4368
 21
-30.00003
  0
LINE
  8
0
  6
CONTINUOUS
 62
     7
 10
332.4368
 20
-23.00003
 11
308.4368
 21
-23.00003
  0
LINE
  8
0
  6
CONTINUOUS
 62
     7
 10
331.9368
 20
-30.50003
 11
308.9368
 21
-30.50003
  0
LINE
  8
0
  6
CONTINUOUS
 62
     7
 10
314.1368
 20
-25.50003
 11
308.9368
 21
-25.50003
  0
LINE
  8
0
  6
CENTER
 62
     2
 10
311.4368
 20
-23.70003
 11
311.4368
 21
-33.15004
  0
LINE
  8
0
  6
CONTINUOUS
 62
     7
 10
314.6368
 20
-26.00003
 11
314.6368
 21
-30.00003
  0
LINE
  8
0
  6
CONTINUOUS
 62
     7
 10
314.2368
 20
-26.67184
 11
314.2368
 21
-25.50003
  0
LINE
  8
0
  6
CONTINUOUS
 62
     7
 10
308.6368
 20
-26.67186
 11
308.6368
 21
-25.50003
  0
LINE
  8
0
  6
CENTER
 62
     2
 10
312.8413
 20
-18.00003
 11
307.6113
 21
-18.00003
  0
LINE
  8
0
  6
CONTINUOUS
 62
     7
 10
311.4368
 20
-16.1862
 11
311.4368
 21
-19.81387
  0
LINE
  8
0
  6
CONTINUOUS
 62
     7
 10
311.4368
 20
-16.1862
 11
308.4368
 21
-16.1862
  0
LINE
  8
0
  6
CONTINUOUS
 62
     7
 10
311.4368
 20
-19.81387
 11
308.4368
 21
-19.81387
  0
LINE
  8
0
  6
CONTINUOUS
 62
     7
 10
332.4368
 20
47.19997
 11
308.4368
 21
47.19997
  0
LINE
  8
0
  6
CONTINUOUS
 62
     7
 10
298.4368
 20
45.69997
 11
298.4368
 21
22.79997
  0
LINE
  8
0
  6
CONTINUOUS
 62
     7
 10
309.4368
 20
50.19997
 11
327.6111
 21
50.19997
  0
LINE
  8
0
  6
CONTINUOUS
 62
     7
 10
332.4368
 20
48.19997
 11
308.4368
 21
48.19997
  0
LINE
  8
0
  6
CONTINUOUS
 62
     7
 10
308.4368
 20
48.19999
 11
309.4368
 21
50.19998
  0
LINE
  8
0
  6
CONTINUOUS
 62
     7
 10
332.4367
 20
48.1999
 11
331.4367
 21
50.19989
  0
LINE
  8
0
  6
CONTINUOUS
 62
     7
 10
326.4368
 20
50.19997
 11
326.4368
 21
48.19997
  0
LINE
  8
0
  6
CENTER
 62
     2
 10
329.4368
 20
53.19997
 11
329.4368
 21
44.19997
  0
LINE
  8
0
  6
CONTINUOUS
 62
     7
 10
331.9868
 20
48.79997
 11
326.8868
 21
48.79997
  0
LINE
  8
0
  6
CONTINUOUS
 62
     7
 10
329.1366
 20
48.19989
 11
328.9758
 21
48.79988
  0
LINE
  8
0
  6
CONTINUOUS
 62
     7
 10
329.7365
 20
48.79991
 11
329.8973
 21
48.19992
  0
LINE
  8
0
  6
CONTINUOUS
 62
     7
 10
331.9868
 20
48.79997
 11
331.9868
 21
48.19997
  0
LINE
  8
0
  6
CONTINUOUS
 62
     7
 10
326.8868
 20
48.79997
 11
326.8868
 21
48.19997
  0
LINE
  8
0
  6
CONTINUOUS
 62
     7
 10
331.6868
 20
49.49373
 11
331.6868
 21
48.79997
  0
LINE
  8
0
  6
CONTINUOUS
 62
     7
 10
327.1868
 20
49.49373
 11
327.1868
 21
48.79997
  0
LINE
  8
0
  6
CONTINUOUS
 62
     7
 10
331.2626
 20
50.19997
 11
331.4368
 21
50.19997
  0
LINE
  8
0
  6
CENTER
 62
     2
 10
311.4368
 20
53.19997
 11
311.4368
 21
44.19997
  0
LINE
  8
0
  6
CONTINUOUS
 62
     7
 10
308.4368
 20
46.49997
 11
299.2368
 21
46.49997
  0
LINE
  8
0
  6
CENTER
 62
     2
 10
303.9368
 20
70.99997
 11
303.9368
 21
43.49997
  0
LINE
  8
0
  6
CONTINUOUS
 62
     7
 10
303.0869
 20
57.99997
 11
303.0869
 21
54.00418
  0
LINE
  8
0
  6
CONTINUOUS
 62
     7
 10
304.7869
 20
57.99997
 11
304.7869
 21
53.54868
  0
LINE
  8
0
  6
CONTINUOUS
 62
     7
 10
303.6168
 20
67.99997
 11
303.6168
 21
57.99997
  0
LINE
  8
0
  6
CONTINUOUS
 62
     7
 10
304.2568
 20
67.99997
 11
304.2568
 21
57.99997
  0
LINE
  8
0
  6
CONTINUOUS
 62
     7
 10
304.7869
 20
57.99997
 11
303.0869
 21
57.99997
  0
LINE
  8
0
  6
CONTINUOUS
 62
     7
 10
304.2568
 20
67.99997
 11
303.6168
 21
67.99997
  0
LINE
  8
0
  6
PHANTOM
 62
     2
 10
301.0869
 20
52.98715
 11
306.7868
 21
51.45985
  0
LINE
  8
0
  6
PHANTOM
 62
     2
 10
301.0868
 20
54.54004
 11
306.7868
 21
53.01274
  0
LINE
  8
0
  6
CONTINUOUS
 62
     7
 10
304.7869
 20
51.99576
 11
304.7869
 21
47.99997
  0
LINE
  8
0
  6
CONTINUOUS
 62
     7
 10
303.0869
 20
52.45128
 11
303.0869
 21
47.99997
  0
LINE
  8
0
  6
CONTINUOUS
 62
     7
 10
300.4368
 20
47.49997
 11
300.4368
 21
46.49997
  0
LINE
  8
0
  6
CONTINUOUS
 62
     7
 10
306.9368
 20
47.99997
 11
300.9368
 21
47.99997
  0
LINE
  8
0
  6
CONTINUOUS
 62
     7
 10
307.4368
 20
47.49997
 11
307.4368
 21
46.49997
  0
LINE
  8
0
  6
CONTINUOUS
 62
     7
 10
-197.4368
 20
48.2
 11
-197.4368
 21
-30.0
  0
LINE
  8
0
  6
CONTINUOUS
 62
     7
 10
-182.4368
 20
48.2
 11
-182.4368
 21
-30.0
  0
LINE
  8
0
  6
CONTINUOUS
 62
     7
 10
-197.4368
 20
22.0
 11
-182.4368
 21
22.0
  0
LINE
  8
0
  6
CONTINUOUS
 62
     7
 10
-197.4368
 20
5.0
 11
-182.4368
 21
5.0
  0
LINE
  8
0
  6
CENTER
 62
     2
 10
-189.9368
 20
52.83333
 11
-189.9368
 21
-32.49854
  0
LINE
  8
0
  6
CENTER
 62
     2
 10
-192.3217
 20
18.5
 11
-187.4751
 21
18.5
  0
LINE
  8
0
  6
CONTINUOUS
 62
     7
 10
-197.4368
 20
-23.0
 11
-182.4368
 21
-23.0
  0
LINE
  8
0
  6
CONTINUOUS
 62
     7
 10
-196.9368
 20
-30.5
 11
-182.9368
 21
-30.5
  0
LINE
  8
0
  6
CONTINUOUS
 62
     7
 10
-196.9368
 20
-25.5
 11
-191.7368
 21
-25.5
  0
LINE
  8
0
  6
CENTER
 62
     2
 10
-194.4368
 20
-24.14999
 11
-194.4368
 21
-32.49854
  0
LINE
  8
0
  6
CONTINUOUS
 62
     7
 10
-191.2368
 20
-26.0
 11
-191.2368
 21
-30.0
  0
LINE
  8
0
  6
CENTER
 62
     2
 10
-190.3974
 20
-4.0
 11
-183.3567
 21
-4.0
  0
LINE
  8
0
  6
CENTER
 62
     2
 10
-186.9368
 20
-0.70221
 11
-186.9368
 21
-7.32877
  0
LINE
  8
0
  6
CENTER
 62
     2
 10
-198.0076
 20
0.0
 11
-191.8987
 21
0.0
  0
LINE
  8
0
  6
CENTER
 62
     2
 10
-187.7053
 20
-18.0
 11
-181.8553
 21
-18.0
  0
LINE
  8
0
  6
CENTER
 62
     2
 10
-184.4368
 20
-14.47301
 11
-184.4368
 21
-21.41017
  0
LINE
  8
0
  6
CENTER
 62
     2
 10
-195.4368
 20
3.43939
 11
-195.4368
 21
-3.34247
  0
LINE
  8
0
  6
CONTINUOUS
 62
     7
 10
-197.2368
 20
-26.67183
 11
-197.2368
 21
-25.5
  0
LINE
  8
0
  6
CONTINUOUS
 62
     7
 10
-191.6368
 20
-26.67183
 11
-191.6368
 21
-25.5
  0
LINE
  8
0
  6
CONTINUOUS
 62
     7
 10
-197.4368
 20
47.20001
 11
-194.4368
 21
47.20001
  0
LINE
  8
0
  6
CONTINUOUS
 62
     7
 10
-196.9368
 20
45.70001
 11
-196.9368
 21
22.8
  0
LINE
  8
0
  6
CONTINUOUS
 62
     7
 10
-182.9368
 20
45.70001
 11
-182.9368
 21
22.8
  0
LINE
  8
0
  6
CONTINUOUS
 62
     7
 10
-195.4368
 20
23.5
 11
-184.4368
 21
23.5
  0
LINE
  8
0
  6
CONTINUOUS
 62
     7
 10
-195.4368
 20
32.0
 11
-184.4368
 21
32.0
  0
LINE
  8
0
  6
CONTINUOUS
 62
     7
 10
-195.4368
 20
32.0
 11
-195.4368
 21
23.5
  0
LINE
  8
0
  6
CONTINUOUS
 62
     7
 10
-184.4368
 20
32.0
 11
-184.4368
 21
23.5
  0
LINE
  8
0
  6
CONTINUOUS
 62
     7
 10
-191.9368
 20
35.5
 11
-187.9368
 21
35.5
  0
LINE
  8
0
  6
CONTINUOUS
 62
     7
 10
-191.9368
 20
33.5
 11
-187.9368
 21
33.5
  0
LINE
  8
0
  6
CONTINUOUS
 62
     7
 10
-191.9368
 20
35.5
 11
-191.9368
 21
33.5
  0
LINE
  8
0
  6
CONTINUOUS
 62
     7
 10
-187.9368
 20
35.5
 11
-187.9368
 21
33.5
  0
LINE
  8
0
  6
CONTINUOUS
 62
     7
 10
-192.4368
 20
36.0
 11
-187.4368
 21
36.0
  0
LINE
  8
0
  6
CONTINUOUS
 62
     7
 10
-192.4368
 20
36.0
 11
-192.4368
 21
33.0
  0
LINE
  8
0
  6
CONTINUOUS
 62
     7
 10
-192.4368
 20
33.0
 11
-187.4368
 21
33.0
  0
LINE
  8
0
  6
CONTINUOUS
 62
     7
 10
-187.4368
 20
36.0
 11
-187.4368
 21
33.0
  0
LINE
  8
0
  6
CONTINUOUS
 62
     7
 10
-191.9368
 20
35.49999
 11
-192.4368
 21
35.99999
  0
LINE
  8
0
  6
CONTINUOUS
 62
     7
 10
-187.9368
 20
35.5
 11
-187.4368
 21
36.00001
  0
LINE
  8
0
  6
CONTINUOUS
 62
     7
 10
-187.9368
 20
33.50003
 11
-187.4368
 21
33.00002
  0
LINE
  8
0
  6
CONTINUOUS
 62
     7
 10
-191.9368
 20
33.5
 11
-192.4368
 21
33.0
  0
LINE
  8
0
  6
CONTINUOUS
 62
     7
 10
-197.4368
 20
48.19998
 11
-192.2868
 21
48.19998
  0
LINE
  8
0
  6
CONTINUOUS
 62
     7
 10
-196.4368
 20
50.20001
 11
-196.2625
 21
50.20001
  0
LINE
  8
0
  6
CONTINUOUS
 62
     7
 10
-182.4368
 20
48.20001
 11
-183.4368
 21
50.20001
  0
LINE
  8
0
  6
CONTINUOUS
 62
     7
 10
-197.4368
 20
48.19999
 11
-196.4368
 21
50.19999
  0
LINE
  8
0
  6
CENTER
 62
     2
 10
-194.4368
 20
53.20001
 11
-194.4368
 21
44.20001
  0
LINE
  8
0
  6
CONTINUOUS
 62
     7
 10
-192.2868
 20
48.79999
 11
-196.9868
 21
48.79999
  0
LINE
  8
0
  6
CONTINUOUS
 62
     7
 10
-196.9868
 20
48.79999
 11
-196.9868
 21
48.19998
  0
LINE
  8
0
  6
CONTINUOUS
 62
     7
 10
-196.6868
 20
49.49374
 11
-196.6868
 21
48.79999
  0
LINE
  8
0
  6
CONTINUOUS
 62
     7
 10
-192.611
 20
50.20001
 11
-192.2868
 21
50.20001
  0
LINE
  8
0
  6
CENTER
 62
     2
 10
-185.4368
 20
53.20001
 11
-185.4368
 21
44.20001
  0
LINE
  8
0
  6
CENTER
 62
     2
 10
-188.4368
 20
71.0
 11
-188.4368
 21
43.5
  0
LINE
  8
0
  6
CENTER
 62
     2
 10
-191.4368
 20
71.0
 11
-191.4368
 21
43.5
  0
LINE
  8
0
  6
CONTINUOUS
 62
     7
 10
-190.5868
 20
58.0
 11
-190.5868
 21
55.05063
  0
LINE
  8
0
  6
CONTINUOUS
 62
     7
 10
-192.2868
 20
58.0
 11
-192.2868
 21
55.50615
  0
LINE
  8
0
  6
CONTINUOUS
 62
     7
 10
-191.1168
 20
68.0
 11
-191.1168
 21
58.0
  0
LINE
  8
0
  6
CONTINUOUS
 62
     7
 10
-191.7568
 20
68.0
 11
-191.7568
 21
58.0
  0
LINE
  8
0
  6
CONTINUOUS
 62
     7
 10
-188.1168
 20
68.0
 11
-188.1168
 21
58.0
  0
LINE
  8
0
  6
CONTINUOUS
 62
     7
 10
-188.7568
 20
68.0
 11
-188.7568
 21
58.0
  0
LINE
  8
0
  6
CONTINUOUS
 62
     7
 10
-187.5868
 20
58.0
 11
-187.5868
 21
54.24678
  0
LINE
  8
0
  6
CONTINUOUS
 62
     7
 10
-189.2868
 20
58.0
 11
-189.2868
 21
54.7023
  0
LINE
  8
0
  6
CONTINUOUS
 62
     7
 10
-191.7568
 20
68.0
 11
-191.1168
 21
68.0
  0
LINE
  8
0
  6
CONTINUOUS
 62
     7
 10
-188.7568
 20
68.0
 11
-188.1168
 21
68.0
  0
LINE
  8
0
  6
CONTINUOUS
 62
     7
 10
-192.2868
 20
58.0
 11
-190.5868
 21
58.0
  0
LINE
  8
0
  6
CONTINUOUS
 62
     7
 10
-189.2868
 20
58.0
 11
-187.5868
 21
58.0
  0
LINE
  8
0
  6
CONTINUOUS
 62
     7
 10
-185.4368
 20
47.20001
 11
-182.4368
 21
47.20001
  0
LINE
  8
0
  6
CONTINUOUS
 62
     7
 10
-190.5868
 20
48.19998
 11
-189.2868
 21
48.19998
  0
LINE
  8
0
  6
CONTINUOUS
 62
     7
 10
-187.5868
 20
48.19998
 11
-182.4368
 21
48.19998
  0
LINE
  8
0
  6
CONTINUOUS
 62
     7
 10
-187.5868
 20
50.20001
 11
-183.4368
 21
50.20001
  0
LINE
  8
0
  6
CONTINUOUS
 62
     7
 10
-190.5868
 20
50.20001
 11
-189.2868
 21
50.20001
  0
LINE
  8
0
  6
PHANTOM
 62
     2
 10
-194.2868
 20
54.48914
 11
-185.5868
 21
52.15799
  0
LINE
  8
0
  6
PHANTOM
 62
     2
 10
-194.2868
 20
56.04202
 11
-185.5868
 21
53.71086
  0
LINE
  8
0
  6
CONTINUOUS
 62
     7
 10
-192.2868
 20
53.95323
 11
-192.2868
 21
48.0
  0
LINE
  8
0
  6
CONTINUOUS
 62
     7
 10
-190.5868
 20
53.49771
 11
-190.5868
 21
48.0
  0
LINE
  8
0
  6
CONTINUOUS
 62
     7
 10
-189.2868
 20
53.14938
 11
-189.2868
 21
48.0
  0
LINE
  8
0
  6
CONTINUOUS
 62
     7
 10
-187.5868
 20
52.69388
 11
-187.5868
 21
48.0
  0
LINE
  8
0
  6
CENTER
 62
     2
 10
-193.9368
 20
34.5
 11
-185.9368
 21
34.5
  0
LINE
  8
0
  6
CONTINUOUS
 62
     7
 10
-196.1368
 20
46.5
 11
-183.7368
 21
46.5
  0
LINE
  8
0
  6
CONTINUOUS
 62
     7
 10
-193.9368
 20
48.0
 11
-185.9368
 21
48.0
  0
LINE
  8
0
  6
CONTINUOUS
 62
     7
 10
-194.4368
 20
47.5
 11
-194.4368
 21
46.5
  0
LINE
  8
0
  6
CONTINUOUS
 62
     7
 10
-185.4368
 20
47.5
 11
-185.4368
 21
46.5
  0
LINE
  8
0
  6
CENTER
 62
     2
 10
-189.9368
 20
108.1858
 11
-189.9368
 21
147.0
  0
LINE
  8
0
  6
CENTER
 62
     2
 10
-199.8851
 20
133.0
 11
-179.949
 21
133.0
  0
LINE
  8
0
  6
CONTINUOUS
 62
     7
 10
-191.4368
 20
124.0
 11
-191.4368
 21
121.0
  0
LINE
  8
0
  6
CONTINUOUS
 62
     7
 10
-188.4368
 20
142.0
 11
-188.4368
 21
145.0
  0
LINE
  8
0
  6
CONTINUOUS
 62
     7
 10
-185.4368
 20
139.0
 11
-182.4368
 21
139.0
  0
LINE
  8
0
  6
CONTINUOUS
 62
     7
 10
-194.4368
 20
127.0
 11
-197.4368
 21
127.0
  0
LINE
  8
0
  6
CONTINUOUS
 62
     7
 10
-188.4368
 20
144.0
 11
-196.4368
 21
144.0
  0
LINE
  8
0
  6
CONTINUOUS
 62
     7
 10
-183.4368
 20
122.0
 11
-191.4368
 21
122.0
  0
LINE
  8
0
  6
CONTINUOUS
 62
     7
 10
-183.4368
 20
139.0
 11
-183.4368
 21
122.0
  0
LINE
  8
0
  6
CONTINUOUS
 62
     7
 10
-196.4368
 20
144.0
 11
-196.4368
 21
127.0
  0
LINE
  8
0
  6
CONTINUOUS
 62
     7
 10
-196.6667
 20
123.7
 11
-196.9691
 21
123.7
  0
LINE
  8
0
  6
CONTINUOUS
 62
     7
 10
-196.6667
 20
124.3
 11
-196.9691
 21
124.3
  0
LINE
  8
0
  6
CONTINUOUS
 62
     7
 10
-196.9448
 20
124.4608
 11
-196.6391
 21
124.4608
  0
LINE
  8
0
  6
CONTINUOUS
 62
     7
 10
-183.2069
 20
142.3
 11
-182.9045
 21
142.3
  0
LINE
  8
0
  6
CONTINUOUS
 62
     7
 10
-183.2069
 20
141.7
 11
-182.9045
 21
141.7
  0
LINE
  8
0
  6
CONTINUOUS
 62
     7
 10
-182.9288
 20
141.5392
 11
-183.2345
 21
141.5392
  0
LINE
  8
0
  6
CONTINUOUS
 62
     7
 10
-195.1722
 20
125.1031
 11
-194.8045
 21
124.7354
  0
LINE
  8
0
  6
CONTINUOUS
 62
     7
 10
-195.5399
 20
124.7354
 11
-195.1722
 21
124.3677
  0
LINE
  8
0
  6
CONTINUOUS
 62
     7
 10
-195.1722
 20
125.1031
 11
-195.5399
 21
124.7354
  0
LINE
  8
0
  6
CONTINUOUS
 62
     7
 10
-193.3337
 20
123.2646
 11
-193.7014
 21
122.8969
  0
LINE
  8
0
  6
CONTINUOUS
 62
     7
 10
-193.0403
 20
125.7642
 11
-194.0691
 21
124.7354
  0
LINE
  8
0
  6
CONTINUOUS
 62
     7
 10
-192.6726
 20
125.3965
 11
-193.7014
 21
124.3677
  0
LINE
  8
0
  6
CONTINUOUS
 62
     7
 10
-193.7014
 20
123.6323
 11
-193.3337
 21
123.2646
  0
LINE
  8
0
  6
CONTINUOUS
 62
     7
 10
-194.0691
 20
123.2646
 11
-193.7014
 21
122.8969
  0
LINE
  8
0
  6
CONTINUOUS
 62
     7
 10
-195.1722
 20
123.6323
 11
-196.201
 21
122.6035
  0
LINE
  8
0
  6
CONTINUOUS
 62
     7
 10
-194.8045
 20
123.2646
 11
-195.8333
 21
122.2358
  0
LINE
  8
0
  6
CONTINUOUS
 62
     7
 10
-186.1722
 20
143.1031
 11
-185.8045
 21
142.7354
  0
LINE
  8
0
  6
CONTINUOUS
 62
     7
 10
-186.5399
 20
142.7354
 11
-186.1722
 21
142.3677
  0
LINE
  8
0
  6
CONTINUOUS
 62
     7
 10
-186.1722
 20
143.1031
 11
-186.5399
 21
142.7354
  0
LINE
  8
0
  6
CONTINUOUS
 62
     7
 10
-184.3337
 20
141.2646
 11
-184.7014
 21
140.8969
  0
LINE
  8
0
  6
CONTINUOUS
 62
     7
 10
-184.0403
 20
143.7642
 11
-185.0691
 21
142.7354
  0
LINE
  8
0
  6
CONTINUOUS
 62
     7
 10
-183.6726
 20
143.3965
 11
-184.7014
 21
142.3677
  0
LINE
  8
0
  6
CONTINUOUS
 62
     7
 10
-184.7014
 20
141.6323
 11
-184.3337
 21
141.2646
  0
LINE
  8
0
  6
CONTINUOUS
 62
     7
 10
-185.0691
 20
141.2646
 11
-184.7014
 21
140.8969
  0
LINE
  8
0
  6
CONTINUOUS
 62
     7
 10
-186.1722
 20
141.6323
 11
-187.201
 21
140.6035
  0
LINE
  8
0
  6
CONTINUOUS
 62
     7
 10
-185.8045
 20
141.2646
 11
-186.8333
 21
140.2358
  0
LINE
  8
0
  6
CENTER
 62
     2
 10
-190.4368
 20
124.0
 11
-198.4368
 21
124.0
  0
LINE
  8
0
  6
CENTER
 62
     2
 10
-181.4368
 20
142.0
 11
-189.4368
 21
142.0
  0
LINE
  8
0
  6
CENTER
 62
     2
 10
-185.4368
 20
146.0
 11
-185.4368
 21
138.0
  0
LINE
  8
0
  6
CENTER
 62
     2
 10
-194.4368
 20
128.0
 11
-194.4368
 21
120.0
  0
LINE
  8
0
  6
CONTINUOUS
 62
     7
 10
-182.9368
 20
145.0
 11
-196.9368
 21
145.0
  0
LINE
  8
0
  6
CONTINUOUS
 62
     7
 10
-182.4368
 20
144.5
 11
-182.4368
 21
121.0
  0
LINE
  8
0
  6
CONTINUOUS
 62
     7
 10
-197.4368
 20
144.5
 11
-197.4368
 21
121.0
  0
LINE
  8
0
  6
CONTINUOUS
 62
     7
 10
-182.4368
 20
121.0
 11
-197.4368
 21
121.0
  0
LINE
  8
0
  6
CONTINUOUS
 62
     7
 10
-182.9368
 20
121.0
 11
-182.9368
 21
111.8
  0
LINE
  8
0
  6
CONTINUOUS
 62
     7
 10
-183.7368
 20
111.0
 11
-196.1368
 21
111.0
  0
LINE
  8
0
  6
CONTINUOUS
 62
     7
 10
-196.9368
 20
121.0
 11
-196.9368
 21
111.8
  0
LINE
  8
0
  6
CENTER
 62
     2
 10
-183.7368
 20
116.5
 11
-196.1368
 21
116.5
  0
LINE
  8
0
  6
CENTER
 62
     2
 10
-188.4368
 20
120.5
 11
-188.4368
 21
112.5
  0
LINE
  8
0
  6
CENTER
 62
     2
 10
-191.4368
 20
120.5
 11
-191.4368
 21
112.5
  0
LINE
  8
0
  6
CONTINUOUS
 62
     7
 10
-188.9368
 20
120.0
 11
-190.9368
 21
120.0
  0
LINE
  8
0
  6
CONTINUOUS
 62
     7
 10
-188.9368
 20
113.0
 11
-190.9368
 21
113.0
  0
LINE
  8
0
  6
CONTINUOUS
 62
     7
 10
-345.4368
 20
21.99997
 11
-312.2368
 21
21.99997
  0
LINE
  8
0
  6
CONTINUOUS
 62
     7
 10
-345.4368
 20
48.19997
 11
-345.4368
 21
-30.00003
  0
LINE
  8
0
  6
CONTINUOUS
 62
     7
 10
-345.4368
 20
4.99997
 11
-321.4368
 21
4.99997
  0
LINE
  8
0
  6
CENTER
 62
     2
 10
-333.4368
 20
52.99997
 11
-333.4368
 21
-32.80002
  0
LINE
  8
0
  6
CONTINUOUS
 62
     7
 10
-321.4368
 20
48.19997
 11
-321.4368
 21
-30.00003
  0
LINE
  8
0
  6
CONTINUOUS
 62
     7
 10
-327.1368
 20
-25.50003
 11
-321.9368
 21
-25.50003
  0
LINE
  8
0
  6
CENTER
 62
     2
 10
-324.4368
 20
-23.70003
 11
-324.4368
 21
-33.15002
  0
LINE
  8
0
  6
CONTINUOUS
 62
     7
 10
-327.2368
 20
-26.67184
 11
-327.2368
 21
-25.50003
  0
LINE
  8
0
  6
CONTINUOUS
 62
     7
 10
-321.6368
 20
-26.67184
 11
-321.6368
 21
-25.50003
  0
LINE
  8
0
  6
CONTINUOUS
 62
     7
 10
-345.4368
 20
-23.00003
 11
-321.4368
 21
-23.00003
  0
LINE
  8
0
  6
CONTINUOUS
 62
     7
 10
-344.9368
 20
-30.50003
 11
-321.9368
 21
-30.50003
  0
LINE
  8
0
  6
CONTINUOUS
 62
     7
 10
-327.1368
 20
-25.50003
 11
-321.9368
 21
-25.50003
  0
LINE
  8
0
  6
CONTINUOUS
 62
     7
 10
-327.6368
 20
-26.00003
 11
-327.6368
 21
-30.00003
  0
LINE
  8
0
  6
CENTER
 62
     2
 10
-325.8412
 20
-0.00003
 11
-320.6112
 21
-0.00003
  0
LINE
  8
0
  6
CONTINUOUS
 62
     7
 10
-324.4368
 20
1.81381
 11
-324.4368
 21
-1.81387
  0
LINE
  8
0
  6
CONTINUOUS
 62
     7
 10
-324.4368
 20
1.81381
 11
-321.4368
 21
1.81381
  0
LINE
  8
0
  6
CONTINUOUS
 62
     7
 10
-324.4368
 20
-1.81387
 11
-321.4368
 21
-1.81387
  0
LINE
  8
0
  6
CONTINUOUS
 62
     7
 10
-345.4368
 20
47.19998
 11
-321.4368
 21
47.19998
  0
LINE
  8
0
  6
CONTINUOUS
 62
     7
 10
-311.4368
 20
45.69998
 11
-311.4368
 21
22.79997
  0
LINE
  8
0
  6
CONTINUOUS
 62
     7
 10
-344.4368
 20
50.19998
 11
-326.2625
 21
50.19998
  0
LINE
  8
0
  6
CONTINUOUS
 62
     7
 10
-345.4368
 20
48.19998
 11
-321.4368
 21
48.19998
  0
LINE
  8
0
  6
CONTINUOUS
 62
     7
 10
-345.4368
 20
48.19995
 11
-344.4368
 21
50.19996
  0
LINE
  8
0
  6
CONTINUOUS
 62
     7
 10
-321.4368
 20
48.19995
 11
-322.4368
 21
50.19997
  0
LINE
  8
0
  6
CONTINUOUS
 62
     7
 10
-327.4368
 20
50.19998
 11
-327.4368
 21
48.19998
  0
LINE
  8
0
  6
CENTER
 62
     2
 10
-324.4368
 20
53.19998
 11
-324.4368
 21
44.19998
  0
LINE
  8
0
  6
CONTINUOUS
 62
     7
 10
-321.8868
 20
48.79997
 11
-326.9868
 21
48.79997
  0
LINE
  8
0
  6
CONTINUOUS
 62
     7
 10
-324.7368
 20
48.19995
 11
-324.8976
 21
48.79996
  0
LINE
  8
0
  6
CONTINUOUS
 62
     7
 10
-324.1368
 20
48.79995
 11
-323.976
 21
48.19996
  0
LINE
  8
0
  6
CONTINUOUS
 62
     7
 10
-321.8868
 20
48.79997
 11
-321.8868
 21
48.19998
  0
LINE
  8
0
  6
CONTINUOUS
 62
     7
 10
-326.9868
 20
48.79997
 11
-326.9868
 21
48.19998
  0
LINE
  8
0
  6
CONTINUOUS
 62
     7
 10
-322.1868
 20
49.49371
 11
-322.1868
 21
48.79997
  0
LINE
  8
0
  6
CONTINUOUS
 62
     7
 10
-326.6868
 20
49.49371
 11
-326.6868
 21
48.79997
  0
LINE
  8
0
  6
CONTINUOUS
 62
     7
 10
-322.611
 20
50.19998
 11
-322.4368
 21
50.19998
  0
LINE
  8
0
  6
CENTER
 62
     2
 10
-342.4368
 20
53.19998
 11
-342.4368
 21
44.19998
  0
LINE
  8
0
  6
CENTER
 62
     2
 10
-316.9368
 20
70.99997
 11
-316.9368
 21
43.49997
  0
LINE
  8
0
  6
CONTINUOUS
 62
     7
 10
-317.7868
 20
57.99997
 11
-317.7868
 21
54.00418
  0
LINE
  8
0
  6
CONTINUOUS
 62
     7
 10
-316.0868
 20
57.99997
 11
-316.0868
 21
53.54868
  0
LINE
  8
0
  6
CONTINUOUS
 62
     7
 10
-317.2568
 20
67.99997
 11
-317.2568
 21
57.99997
  0
LINE
  8
0
  6
CONTINUOUS
 62
     7
 10
-316.6168
 20
67.99997
 11
-316.6168
 21
57.99997
  0
LINE
  8
0
  6
CONTINUOUS
 62
     7
 10
-316.0868
 20
57.99997
 11
-317.7868
 21
57.99997
  0
LINE
  8
0
  6
CONTINUOUS
 62
     7
 10
-316.6168
 20
67.99997
 11
-317.2568
 21
67.99997
  0
LINE
  8
0
  6
PHANTOM
 62
     2
 10
-319.7867
 20
52.98717
 11
-314.0867
 21
51.45987
  0
LINE
  8
0
  6
PHANTOM
 62
     2
 10
-319.7867
 20
54.54007
 11
-314.0867
 21
53.01276
  0
LINE
  8
0
  6
CONTINUOUS
 62
     7
 10
-316.0868
 20
51.99576
 11
-316.0868
 21
47.99997
  0
LINE
  8
0
  6
CONTINUOUS
 62
     7
 10
-317.7868
 20
52.45126
 11
-317.7868
 21
47.99997
  0
LINE
  8
0
  6
CONTINUOUS
 62
     7
 10
-320.4368
 20
47.49997
 11
-320.4368
 21
46.49997
  0
LINE
  8
0
  6
CONTINUOUS
 62
     7
 10
-313.9368
 20
47.99997
 11
-319.9368
 21
47.99997
  0
LINE
  8
0
  6
CONTINUOUS
 62
     7
 10
-313.4368
 20
47.49997
 11
-313.4368
 21
46.49997
  0
LINE
  8
0
  6
CONTINUOUS
 62
     7
 10
-321.4368
 20
46.49997
 11
-312.2368
 21
46.49997
  0
LINE
  8
0
  6
CONTINUOUS
 62
     7
 10
-35.43675
 20
22.0
 11
-68.63676
 21
22.0
  0
LINE
  8
0
  6
CONTINUOUS
 62
     7
 10
-35.43675
 20
48.0
 11
-35.43675
 21
-30.0
  0
LINE
  8
0
  6
CONTINUOUS
 62
     7
 10
-35.43675
 20
5.0
 11
-59.43675
 21
5.0
  0
LINE
  8
0
  6
CENTER
 62
     2
 10
-47.43675
 20
53.0
 11
-47.43675
 21
-32.80002
  0
LINE
  8
0
  6
CONTINUOUS
 62
     7
 10
-59.43675
 20
48.19998
 11
-59.43675
 21
-30.0
  0
LINE
  8
0
  6
CONTINUOUS
 62
     7
 10
-35.43675
 20
-23.0
 11
-59.43675
 21
-23.0
  0
LINE
  8
0
  6
CONTINUOUS
 62
     7
 10
-35.93675
 20
-30.5
 11
-58.93675
 21
-30.5
  0
LINE
  8
0
  6
CONTINUOUS
 62
     7
 10
-41.13675
 20
-25.5
 11
-35.93675
 21
-25.5
  0
LINE
  8
0
  6
CENTER
 62
     2
 10
-38.43675
 20
-23.7
 11
-38.43675
 21
-33.14999
  0
LINE
  8
0
  6
CONTINUOUS
 62
     7
 10
-41.63675
 20
-26.0
 11
-41.63675
 21
-30.0
  0
LINE
  8
0
  6
CONTINUOUS
 62
     7
 10
-41.23674
 20
-26.67183
 11
-41.23674
 21
-25.5
  0
LINE
  8
0
  6
CONTINUOUS
 62
     7
 10
-35.63675
 20
-26.67183
 11
-35.63675
 21
-25.5
  0
LINE
  8
0
  6
CENTER
 62
     2
 10
-55.03227
 20
-17.99998
 11
-60.26231
 21
-17.99998
  0
LINE
  8
0
  6
CONTINUOUS
 62
     7
 10
-56.43675
 20
-16.18616
 11
-56.43675
 21
-19.81383
  0
LINE
  8
0
  6
CONTINUOUS
 62
     7
 10
-56.43675
 20
-16.18616
 11
-59.43675
 21
-16.18616
  0
LINE
  8
0
  6
CONTINUOUS
 62
     7
 10
-56.43675
 20
-19.81383
 11
-59.43675
 21
-19.81383
  0
LINE
  8
0
  6
CONTINUOUS
 62
     7
 10
-58.93675
 20
-30.5
 11
-35.93675
 21
-30.5
  0
LINE
  8
0
  6
CONTINUOUS
 62
     7
 10
-35.63675
 20
-26.67183
 11
-35.63675
 21
-25.5
  0
LINE
  8
0
  6
CONTINUOUS
 62
     7
 10
-35.43675
 20
47.20001
 11
-59.43675
 21
47.20001
  0
LINE
  8
0
  6
CONTINUOUS
 62
     7
 10
-69.43675
 20
45.70001
 11
-69.43675
 21
22.8
  0
LINE
  8
0
  6
CONTINUOUS
 62
     7
 10
-58.43675
 20
50.20001
 11
-40.26253
 21
50.20001
  0
LINE
  8
0
  6
CONTINUOUS
 62
     7
 10
-35.43675
 20
48.20001
 11
-59.43675
 21
48.20001
  0
LINE
  8
0
  6
CONTINUOUS
 62
     7
 10
-59.43676
 20
48.2
 11
-58.43676
 21
50.2
  0
LINE
  8
0
  6
CONTINUOUS
 62
     7
 10
-35.43679
 20
48.2
 11
-36.43678
 21
50.19999
  0
LINE
  8
0
  6
CONTINUOUS
 62
     7
 10
-41.43675
 20
50.20001
 11
-41.43675
 21
48.20001
  0
LINE
  8
0
  6
CENTER
 62
     2
 10
-38.43675
 20
53.20001
 11
-38.43675
 21
44.20001
  0
LINE
  8
0
  6
CONTINUOUS
 62
     7
 10
-35.88676
 20
48.8
 11
-40.98674
 21
48.8
  0
LINE
  8
0
  6
CONTINUOUS
 62
     7
 10
-38.73674
 20
48.20001
 11
-38.89752
 21
48.80001
  0
LINE
  8
0
  6
CONTINUOUS
 62
     7
 10
-38.13677
 20
48.79998
 11
-37.976
 21
48.19999
  0
LINE
  8
0
  6
CONTINUOUS
 62
     7
 10
-35.88676
 20
48.8
 11
-35.88676
 21
48.20001
  0
LINE
  8
0
  6
CONTINUOUS
 62
     7
 10
-40.98674
 20
48.8
 11
-40.98674
 21
48.20001
  0
LINE
  8
0
  6
CONTINUOUS
 62
     7
 10
-36.18675
 20
49.49374
 11
-36.18675
 21
48.8
  0
LINE
  8
0
  6
CONTINUOUS
 62
     7
 10
-40.68675
 20
49.49374
 11
-40.68675
 21
48.8
  0
LINE
  8
0
  6
CONTINUOUS
 62
     7
 10
-36.61098
 20
50.20001
 11
-36.43675
 21
50.20001
  0
LINE
  8
0
  6
CENTER
 62
     2
 10
-56.43675
 20
53.20001
 11
-56.43675
 21
44.20001
  0
LINE
  8
0
  6
CONTINUOUS
 62
     7
 10
-59.43675
 20
46.5
 11
-68.63675
 21
46.5
  0
LINE
  8
0
  6
CENTER
 62
     2
 10
-63.93675
 20
71.0
 11
-63.93675
 21
43.5
  0
LINE
  8
0
  6
CONTINUOUS
 62
     7
 10
-64.78674
 20
58.0
 11
-64.78674
 21
54.00421
  0
LINE
  8
0
  6
CONTINUOUS
 62
     7
 10
-63.08675
 20
58.0
 11
-63.08675
 21
53.54871
  0
LINE
  8
0
  6
CONTINUOUS
 62
     7
 10
-64.25674
 20
68.0
 11
-64.25674
 21
58.0
  0
LINE
  8
0
  6
CONTINUOUS
 62
     7
 10
-63.61674
 20
68.0
 11
-63.61674
 21
58.0
  0
LINE
  8
0
  6
CONTINUOUS
 62
     7
 10
-63.08675
 20
58.0
 11
-64.78674
 21
58.0
  0
LINE
  8
0
  6
CONTINUOUS
 62
     7
 10
-63.61674
 20
68.0
 11
-64.25674
 21
68.0
  0
LINE
  8
0
  6
PHANTOM
 62
     2
 10
-66.78675
 20
52.98719
 11
-61.08675
 21
51.45988
  0
LINE
  8
0
  6
PHANTOM
 62
     2
 10
-66.78675
 20
54.54013
 11
-61.08675
 21
53.01283
  0
LINE
  8
0
  6
CONTINUOUS
 62
     7
 10
-63.08675
 20
51.99579
 11
-63.08675
 21
48.0
  0
LINE
  8
0
  6
CONTINUOUS
 62
     7
 10
-64.78674
 20
52.45129
 11
-64.78674
 21
48.0
  0
LINE
  8
0
  6
CONTINUOUS
 62
     7
 10
-67.43675
 20
47.5
 11
-67.43675
 21
46.5
  0
LINE
  8
0
  6
CONTINUOUS
 62
     7
 10
-60.93675
 20
48.0
 11
-66.93675
 21
48.0
  0
LINE
  8
0
  6
CONTINUOUS
 62
     7
 10
-60.43675
 20
47.5
 11
-60.43675
 21
46.5
  0
LINE
  8
0
  6
CONTINUOUS
 62
     7
 10
-197.4368
 20
-163.1999
 11
-194.4368
 21
-163.1999
  0
LINE
  8
0
  6
CONTINUOUS
 62
     7
 10
-185.4368
 20
-174.8
 11
-182.4368
 21
-174.8
  0
LINE
  8
0
  6
CONTINUOUS
 62
     7
 10
-191.2368
 20
-159.9999
 11
-191.2368
 21
-156.9999
  0
LINE
  8
0
  6
CONTINUOUS
 62
     7
 10
-188.6367
 20
-177.9999
 11
-188.6367
 21
-180.9999
  0
LINE
  8
0
  6
CENTER
 62
     2
 10
-198.9368
 20
-168.9999
 11
-180.9368
 21
-168.9999
  0
LINE
  8
0
  6
CENTER
 62
     2
 10
-189.9368
 20
-144.1858
 11
-189.9368
 21
-182.9999
  0
LINE
  8
0
  6
CONTINUOUS
 62
     7
 10
-196.4368
 20
-166.9999
 11
-183.4368
 21
-166.9999
  0
LINE
  8
0
  6
CONTINUOUS
 62
     7
 10
-196.4368
 20
-170.9999
 11
-183.4368
 21
-170.9999
  0
LINE
  8
0
  6
CONTINUOUS
 62
     7
 10
-183.4368
 20
-166.9999
 11
-183.4368
 21
-170.9999
  0
LINE
  8
0
  6
CONTINUOUS
 62
     7
 10
-196.4368
 20
-166.9999
 11
-196.4368
 21
-170.9999
  0
LINE
  8
0
  6
CONTINUOUS
 62
     7
 10
-195.7247
 20
-169.9698
 11
-193.7365
 21
-169.9698
  0
LINE
  8
0
  6
CONTINUOUS
 62
     7
 10
-195.7247
 20
-170.4999
 11
-193.0296
 21
-170.4999
  0
LINE
  8
0
  6
CONTINUOUS
 62
     7
 10
-195.7247
 20
-168.4233
 11
-193.7365
 21
-168.4233
  0
LINE
  8
0
  6
CONTINUOUS
 62
     7
 10
-195.7247
 20
-167.8932
 11
-195.7247
 21
-168.4233
  0
LINE
  8
0
  6
CONTINUOUS
 62
     7
 10
-193.0296
 20
-168.2466
 11
-193.0296
 21
-170.4999
  0
LINE
  8
0
  6
CONTINUOUS
 62
     7
 10
-193.7365
 20
-168.4233
 11
-193.7365
 21
-169.9698
  0
LINE
  8
0
  6
CONTINUOUS
 62
     7
 10
-192.6319
 20
-167.8932
 11
-192.6319
 21
-168.4233
  0
LINE
  8
0
  6
CONTINUOUS
 62
     7
 10
-190.1135
 20
-168.4233
 11
-190.1135
 21
-170.1465
  0
LINE
  8
0
  6
CONTINUOUS
 62
     7
 10
-190.8204
 20
-168.4233
 11
-190.8204
 21
-169.9698
  0
LINE
  8
0
  6
CONTINUOUS
 62
     7
 10
-195.7247
 20
-169.9698
 11
-195.7247
 21
-170.4999
  0
LINE
  8
0
  6
CONTINUOUS
 62
     7
 10
-192.6319
 20
-167.8932
 11
-191.9334
 21
-167.8932
  0
LINE
  8
0
  6
CONTINUOUS
 62
     7
 10
-192.6319
 20
-170.4999
 11
-192.083
 21
-170.4999
  0
LINE
  8
0
  6
CONTINUOUS
 62
     7
 10
-192.6319
 20
-170.5
 11
-192.0755
 21
-168.4234
  0
LINE
  8
0
  6
CONTINUOUS
 62
     7
 10
-192.6319
 20
-168.4233
 11
-192.0755
 21
-168.4233
  0
LINE
  8
0
  6
CONTINUOUS
 62
     7
 10
-192.083
 20
-170.5
 11
-191.5266
 21
-168.4234
  0
LINE
  8
0
  6
CONTINUOUS
 62
     7
 10
-191.3506
 20
-169.9698
 11
-190.8204
 21
-169.9698
  0
LINE
  8
0
  6
CONTINUOUS
 62
     7
 10
-191.3506
 20
-169.9697
 11
-191.2085
 21
-170.4999
  0
LINE
  8
0
  6
CONTINUOUS
 62
     7
 10
-191.2086
 20
-170.4999
 11
-190.467
 21
-170.4999
  0
LINE
  8
0
  6
CONTINUOUS
 62
     7
 10
-191.5266
 20
-168.4233
 11
-190.8204
 21
-168.4233
  0
LINE
  8
0
  6
CONTINUOUS
 62
     7
 10
-191.3845
 20
-167.8932
 11
-190.6437
 21
-167.8932
  0
LINE
  8
0
  6
CONTINUOUS
 62
     7
 10
-191.9333
 20
-167.8932
 11
-191.828
 21
-167.5
  0
LINE
  8
0
  6
CONTINUOUS
 62
     7
 10
-191.3845
 20
-167.8932
 11
-191.2792
 21
-167.4999
  0
LINE
  8
0
  6
CONTINUOUS
 62
     7
 10
-189.6717
 20
-167.8932
 11
-188.8322
 21
-167.8932
  0
LINE
  8
0
  6
CONTINUOUS
 62
     7
 10
-189.6717
 20
-168.4233
 11
-187.61
 21
-168.4233
  0
LINE
  8
0
  6
CONTINUOUS
 62
     7
 10
-188.8322
 20
-170.4999
 11
-188.1253
 21
-170.4999
  0
LINE
  8
0
  6
CONTINUOUS
 62
     7
 10
-189.6717
 20
-167.8932
 11
-189.6717
 21
-168.4233
  0
LINE
  8
0
  6
CONTINUOUS
 62
     7
 10
-187.0649
 20
-169.3847
 11
-187.0649
 21
-169.9698
  0
LINE
  8
0
  6
CONTINUOUS
 62
     7
 10
-189.6716
 20
-169.9699
 11
-188.8322
 21
-169.5784
  0
LINE
  8
0
  6
CONTINUOUS
 62
     7
 10
-189.6716
 20
-169.3848
 11
-187.6099
 21
-168.4234
  0
LINE
  8
0
  6
CONTINUOUS
 62
     7
 10
-189.6717
 20
-169.3847
 11
-189.6717
 21
-169.9698
  0
LINE
  8
0
  6
CONTINUOUS
 62
     7
 10
-188.1253
 20
-169.4752
 11
-187.0649
 21
-169.9697
  0
LINE
  8
0
  6
CONTINUOUS
 62
     7
 10
-187.7409
 20
-169.0694
 11
-187.0648
 21
-169.3847
  0
LINE
  8
0
  6
CONTINUOUS
 62
     7
 10
-187.0649
 20
-168.2466
 11
-187.0649
 21
-168.529
  0
LINE
  8
0
  6
CONTINUOUS
 62
     7
 10
-188.8322
 20
-167.4999
 11
-188.8322
 21
-167.8932
  0
LINE
  8
0
  6
CONTINUOUS
 62
     7
 10
-188.1253
 20
-167.4999
 11
-188.1253
 21
-167.8932
  0
LINE
  8
0
  6
CONTINUOUS
 62
     7
 10
-188.1253
 20
-167.8932
 11
-187.4184
 21
-167.8932
  0
LINE
  8
0
  6
CONTINUOUS
 62
     7
 10
-188.8322
 20
-169.5783
 11
-188.8322
 21
-170.4999
  0
LINE
  8
0
  6
CONTINUOUS
 62
     7
 10
-188.1253
 20
-169.4753
 11
-188.1253
 21
-170.4999
  0
LINE
  8
0
  6
CONTINUOUS
 62
     7
 10
-187.741
 20
-169.0695
 11
-187.2689
 21
-168.8494
  0
LINE
  8
0
  6
CONTINUOUS
 62
     7
 10
-184.679
 20
-167.659
 11
-184.1488
 21
-167.659
  0
LINE
  8
0
  6
CONTINUOUS
 62
     7
 10
-186.844
 20
-168.7542
 11
-186.844
 21
-169.3248
  0
LINE
  8
0
  6
CONTINUOUS
 62
     7
 10
-184.1488
 20
-167.659
 11
-184.1488
 21
-167.8932
  0
LINE
  8
0
  6
CONTINUOUS
 62
     7
 10
-184.679
 20
-167.659
 11
-184.679
 21
-167.7733
  0
LINE
  8
0
  6
CONTINUOUS
 62
     7
 10
-185.386
 20
-168.7449
 11
-185.386
 21
-170.4999
  0
LINE
  8
0
  6
CONTINUOUS
 62
     7
 10
-186.8439
 20
-168.7542
 11
-184.7904
 21
-167.9375
  0
LINE
  8
0
  6
CONTINUOUS
 62
     7
 10
-186.8439
 20
-169.3247
 11
-185.3859
 21
-168.7448
  0
LINE
  8
0
  6
CONTINUOUS
 62
     7
 10
-185.386
 20
-170.4999
 11
-184.679
 21
-170.4999
  0
LINE
  8
0
  6
CONTINUOUS
 62
     7
 10
-184.679
 20
-168.4637
 11
-184.679
 21
-170.4999
  0
LINE
  8
0
  6
CONTINUOUS
 62
     7
 10
-184.679
 20
-168.4638
 11
-184.4831
 21
-168.3858
  0
LINE
  8
0
  6
CONTINUOUS
 62
     7
 10
-191.8281
 20
-167.4999
 11
-191.2792
 21
-167.4999
  0
LINE
  8
0
  6
CONTINUOUS
 62
     7
 10
-190.4007
 20
-167.4999
 11
-190.1747
 21
-167.4999
  0
LINE
  8
0
  6
CONTINUOUS
 62
     7
 10
-188.8322
 20
-167.4999
 11
-188.1253
 21
-167.4999
  0
LINE
  8
0
  6
CONTINUOUS
 62
     7
 10
-190.4007
 20
-167.8534
 11
-190.1747
 21
-167.8534
  0
LINE
  8
0
  6
CONTINUOUS
 62
     7
 10
-190.4007
 20
-167.4999
 11
-190.4007
 21
-167.8534
  0
LINE
  8
0
  6
CONTINUOUS
 62
     7
 10
-190.1747
 20
-167.4999
 11
-190.1747
 21
-167.8534
  0
LINE
  8
0
  6
CONTINUOUS
 62
     7
 10
-190.0169
 20
-167.4999
 11
-190.0169
 21
-167.8534
  0
LINE
  8
0
  6
CONTINUOUS
 62
     7
 10
-189.791
 20
-167.4999
 11
-189.791
 21
-167.8534
  0
LINE
  8
0
  6
CONTINUOUS
 62
     7
 10
-190.017
 20
-167.4999
 11
-189.791
 21
-167.4999
  0
LINE
  8
0
  6
CONTINUOUS
 62
     7
 10
-190.017
 20
-167.8534
 11
-189.791
 21
-167.8534
  0
LINE
  8
0
  6
CONTINUOUS
 62
     7
 10
-182.4368
 20
-180.4999
 11
-182.4368
 21
-156.9999
  0
LINE
  8
0
  6
CONTINUOUS
 62
     7
 10
-197.4368
 20
-180.4999
 11
-197.4368
 21
-156.9999
  0
LINE
  8
0
  6
CONTINUOUS
 62
     7
 10
-196.9368
 20
-180.9999
 11
-182.9368
 21
-180.9999
  0
LINE
  8
0
  6
CONTINUOUS
 62
     7
 10
-197.4368
 20
-156.9999
 11
-182.4368
 21
-156.9999
  0
LINE
  8
0
  6
CONTINUOUS
 62
     7
 10
-195.7247
 20
-167.8932
 11
-193.383
 21
-167.8932
  0
LINE
  8
0
  6
CONTINUOUS
 62
     7
 10
-190.1135
 20
-168.4233
 11
-190.1135
 21
-170.1465
  0
LINE
  8
0
  6
CONTINUOUS
 62
     7
 10
-191.2086
 20
-170.4999
 11
-190.467
 21
-170.4999
  0
LINE
  8
0
  6
CONTINUOUS
 62
     7
 10
-191.3845
 20
-167.8932
 11
-190.6437
 21
-167.8932
  0
LINE
  8
0
  6
CONTINUOUS
 62
     7
 10
-187.0649
 20
-168.2466
 11
-187.0649
 21
-168.529
  0
LINE
  8
0
  6
CONTINUOUS
 62
     7
 10
-184.679
 20
-167.659
 11
-184.1488
 21
-167.659
  0
LINE
  8
0
  6
CONTINUOUS
 62
     7
 10
-184.1488
 20
-167.659
 11
-184.1488
 21
-167.8932
  0
LINE
  8
0
  6
CONTINUOUS
 62
     7
 10
-184.679
 20
-167.659
 11
-184.679
 21
-167.7733
  0
LINE
  8
0
  6
CONTINUOUS
 62
     7
 10
-186.8439
 20
-168.7542
 11
-184.7904
 21
-167.9375
  0
LINE
  8
0
  6
CONTINUOUS
 62
     7
 10
-184.679
 20
-168.4637
 11
-184.679
 21
-170.4999
  0
LINE
  8
0
  6
CONTINUOUS
 62
     7
 10
-184.679
 20
-168.4636
 11
-184.4831
 21
-168.3857
  0
LINE
  8
0
  6
CENTER
 62
     2
 10
-194.4368
 20
-164.1789
 11
-194.4368
 21
-155.832
  0
LINE
  8
0
  6
CENTER
 62
     2
 10
-198.4691
 20
-159.9999
 11
-190.527
 21
-159.9999
  0
LINE
  8
0
  6
CONTINUOUS
 62
     7
 10
-194.2853
 20
-161.2727
 11
-195.7095
 21
-160.8485
  0
LINE
  8
0
  6
CONTINUOUS
 62
     7
 10
-193.164
 20
-159.1514
 11
-193.5882
 21
-158.7272
  0
LINE
  8
0
  6
CONTINUOUS
 62
     7
 10
-193.5882
 20
-161.2727
 11
-194.0125
 21
-160.8484
  0
LINE
  8
0
  6
CONTINUOUS
 62
     7
 10
-193.164
 20
-160.8484
 11
-193.5882
 21
-160.4242
  0
LINE
  8
0
  6
CONTINUOUS
 62
     7
 10
-193.5882
 20
-161.2727
 11
-193.1639
 21
-160.8485
  0
LINE
  8
0
  6
CONTINUOUS
 62
     7
 10
-195.7095
 20
-159.1515
 11
-195.2852
 21
-158.7272
  0
LINE
  8
0
  6
CONTINUOUS
 62
     7
 10
-195.2852
 20
-161.2728
 11
-194.861
 21
-160.8485
  0
LINE
  8
0
  6
CONTINUOUS
 62
     7
 10
-195.7095
 20
-160.8486
 11
-195.2852
 21
-160.4243
  0
LINE
  8
0
  6
CONTINUOUS
 62
     7
 10
-195.2853
 20
-159.5757
 11
-195.7096
 21
-159.1514
  0
LINE
  8
0
  6
CONTINUOUS
 62
     7
 10
-194.861
 20
-159.1514
 11
-195.2853
 21
-158.7271
  0
LINE
  8
0
  6
CONTINUOUS
 62
     7
 10
-193.5882
 20
-159.5757
 11
-193.1639
 21
-159.1514
  0
LINE
  8
0
  6
CONTINUOUS
 62
     7
 10
-194.0124
 20
-159.1515
 11
-193.5882
 21
-158.7272
  0
LINE
  8
0
  6
CENTER
 62
     2
 10
-185.4368
 20
-182.1789
 11
-185.4368
 21
-173.832
  0
LINE
  8
0
  6
CENTER
 62
     2
 10
-189.4691
 20
-177.9999
 11
-181.527
 21
-177.9999
  0
LINE
  8
0
  6
CONTINUOUS
 62
     7
 10
-186.2853
 20
-179.2728
 11
-186.7096
 21
-178.8485
  0
LINE
  8
0
  6
CONTINUOUS
 62
     7
 10
-184.164
 20
-177.1514
 11
-184.5883
 21
-176.7272
  0
LINE
  8
0
  6
CONTINUOUS
 62
     7
 10
-184.5882
 20
-179.2728
 11
-185.0125
 21
-178.8485
  0
LINE
  8
0
  6
CONTINUOUS
 62
     7
 10
-184.164
 20
-178.8485
 11
-184.5882
 21
-178.4242
  0
LINE
  8
0
  6
CONTINUOUS
 62
     7
 10
-184.5882
 20
-179.2727
 11
-184.1639
 21
-178.8485
  0
LINE
  8
0
  6
CONTINUOUS
 62
     7
 10
-186.7095
 20
-177.1514
 11
-186.2853
 21
-176.7272
  0
LINE
  8
0
  6
CONTINUOUS
 62
     7
 10
-186.2853
 20
-179.2728
 11
-185.861
 21
-178.8485
  0
LINE
  8
0
  6
CONTINUOUS
 62
     7
 10
-186.7095
 20
-178.8486
 11
-186.2852
 21
-178.4243
  0
LINE
  8
0
  6
CONTINUOUS
 62
     7
 10
-186.2853
 20
-177.5757
 11
-186.7096
 21
-177.1514
  0
LINE
  8
0
  6
CONTINUOUS
 62
     7
 10
-185.8611
 20
-177.1514
 11
-186.2853
 21
-176.7271
  0
LINE
  8
0
  6
CONTINUOUS
 62
     7
 10
-184.5882
 20
-177.5757
 11
-184.1639
 21
-177.1515
  0
LINE
  8
0
  6
CONTINUOUS
 62
     7
 10
-185.0124
 20
-177.1515
 11
-184.5882
 21
-176.7272
  0
LINE
  8
0
  6
CONTINUOUS
 62
     7
 10
-196.9368
 20
-156.9999
 11
-196.9368
 21
-147.8
  0
LINE
  8
0
  6
CONTINUOUS
 62
     7
 10
-196.1368
 20
-146.9999
 11
-183.7368
 21
-146.9999
  0
LINE
  8
0
  6
CONTINUOUS
 62
     7
 10
-182.9368
 20
-156.9999
 11
-182.9368
 21
-147.8
  0
LINE
  8
0
  6
CONTINUOUS
 62
     7
 10
170.4368
 20
48.2
 11
170.4368
 21
-30.0
  0
LINE
  8
0
  6
CONTINUOUS
 62
     7
 10
185.4368
 20
48.2
 11
185.4368
 21
-30.0
  0
LINE
  8
0
  6
CONTINUOUS
 62
     7
 10
170.4368
 20
22.0
 11
185.4368
 21
22.0
  0
LINE
  8
0
  6
CONTINUOUS
 62
     7
 10
170.4368
 20
5.0
 11
185.4368
 21
5.0
  0
LINE
  8
0
  6
CENTER
 62
     2
 10
177.9368
 20
52.2
 11
177.9368
 21
-32.49852
  0
LINE
  8
0
  6
CENTER
 62
     2
 10
175.5518
 20
18.5
 11
180.3984
 21
18.5
  0
LINE
  8
0
  6
CONTINUOUS
 62
     7
 10
170.4368
 20
-23.0
 11
185.4368
 21
-23.0
  0
LINE
  8
0
  6
CONTINUOUS
 62
     7
 10
170.9368
 20
-30.5
 11
184.9368
 21
-30.5
  0
LINE
  8
0
  6
CONTINUOUS
 62
     7
 10
170.9368
 20
-25.5
 11
176.1368
 21
-25.5
  0
LINE
  8
0
  6
CENTER
 62
     2
 10
173.4368
 20
-24.14999
 11
173.4368
 21
-32.49852
  0
LINE
  8
0
  6
CONTINUOUS
 62
     7
 10
176.6368
 20
-26.0
 11
176.6368
 21
-30.0
  0
LINE
  8
0
  6
CENTER
 62
     2
 10
169.866
 20
0.0
 11
175.9748
 21
0.0
  0
LINE
  8
0
  6
CENTER
 62
     2
 10
180.1682
 20
-18.0
 11
186.0182
 21
-18.0
  0
LINE
  8
0
  6
CENTER
 62
     2
 10
183.4368
 20
-14.47301
 11
183.4368
 21
-21.41017
  0
LINE
  8
0
  6
CENTER
 62
     2
 10
172.4368
 20
3.43938
 11
172.4368
 21
-3.34248
  0
LINE
  8
0
  6
CONTINUOUS
 62
     7
 10
170.6368
 20
-26.67183
 11
170.6368
 21
-25.5
  0
LINE
  8
0
  6
CONTINUOUS
 62
     7
 10
176.2368
 20
-26.67183
 11
176.2368
 21
-25.5
  0
LINE
  8
0
  6
CONTINUOUS
 62
     7
 10
170.4368
 20
47.2
 11
173.4368
 21
47.2
  0
LINE
  8
0
  6
CONTINUOUS
 62
     7
 10
170.9368
 20
45.7
 11
170.9368
 21
22.8
  0
LINE
  8
0
  6
CONTINUOUS
 62
     7
 10
184.9368
 20
45.7
 11
184.9368
 21
22.8
  0
LINE
  8
0
  6
CONTINUOUS
 62
     7
 10
172.4368
 20
23.5
 11
183.4368
 21
23.5
  0
LINE
  8
0
  6
CONTINUOUS
 62
     7
 10
172.4368
 20
32.0
 11
183.4368
 21
32.0
  0
LINE
  8
0
  6
CONTINUOUS
 62
     7
 10
172.4368
 20
32.0
 11
172.4368
 21
23.5
  0
LINE
  8
0
  6
CONTINUOUS
 62
     7
 10
183.4368
 20
32.0
 11
183.4368
 21
23.5
  0
LINE
  8
0
  6
CONTINUOUS
 62
     7
 10
175.9368
 20
35.5
 11
179.9368
 21
35.5
  0
LINE
  8
0
  6
CONTINUOUS
 62
     7
 10
175.9368
 20
33.5
 11
179.9368
 21
33.5
  0
LINE
  8
0
  6
CONTINUOUS
 62
     7
 10
175.9368
 20
35.5
 11
175.9368
 21
33.5
  0
LINE
  8
0
  6
CONTINUOUS
 62
     7
 10
179.9368
 20
35.5
 11
179.9368
 21
33.5
  0
LINE
  8
0
  6
CONTINUOUS
 62
     7
 10
175.4368
 20
36.0
 11
180.4368
 21
36.0
  0
LINE
  8
0
  6
CONTINUOUS
 62
     7
 10
175.4368
 20
36.0
 11
175.4368
 21
33.0
  0
LINE
  8
0
  6
CONTINUOUS
 62
     7
 10
175.4368
 20
33.0
 11
180.4368
 21
33.0
  0
LINE
  8
0
  6
CONTINUOUS
 62
     7
 10
180.4368
 20
36.0
 11
180.4368
 21
33.0
  0
LINE
  8
0
  6
CONTINUOUS
 62
     7
 10
175.9368
 20
35.49995
 11
175.4367
 21
35.99996
  0
LINE
  8
0
  6
CONTINUOUS
 62
     7
 10
179.9368
 20
35.50004
 11
180.4368
 21
36.00005
  0
LINE
  8
0
  6
CONTINUOUS
 62
     7
 10
179.9367
 20
33.49997
 11
180.4368
 21
32.99996
  0
LINE
  8
0
  6
CONTINUOUS
 62
     7
 10
175.9368
 20
33.50003
 11
175.4368
 21
33.00005
  0
LINE
  8
0
  6
CONTINUOUS
 62
     7
 10
170.4368
 20
48.2
 11
175.5868
 21
48.2
  0
LINE
  8
0
  6
CONTINUOUS
 62
     7
 10
171.4368
 20
50.2
 11
171.611
 21
50.2
  0
LINE
  8
0
  6
CONTINUOUS
 62
     7
 10
185.4367
 20
48.19996
 11
184.4367
 21
50.19997
  0
LINE
  8
0
  6
CONTINUOUS
 62
     7
 10
170.4368
 20
48.2
 11
171.4368
 21
50.19999
  0
LINE
  8
0
  6
CENTER
 62
     2
 10
173.4368
 20
53.2
 11
173.4368
 21
44.2
  0
LINE
  8
0
  6
CONTINUOUS
 62
     7
 10
175.5868
 20
48.79999
 11
170.8867
 21
48.79999
  0
LINE
  8
0
  6
CONTINUOUS
 62
     7
 10
170.8868
 20
48.79999
 11
170.8868
 21
48.2
  0
LINE
  8
0
  6
CONTINUOUS
 62
     7
 10
171.1868
 20
49.49374
 11
171.1868
 21
48.79999
  0
LINE
  8
0
  6
CONTINUOUS
 62
     7
 10
175.2625
 20
50.2
 11
175.5868
 21
50.2
  0
LINE
  8
0
  6
CENTER
 62
     2
 10
182.4368
 20
53.2
 11
182.4368
 21
44.2
  0
LINE
  8
0
  6
CENTER
 62
     2
 10
179.4368
 20
71.0
 11
179.4368
 21
43.5
  0
LINE
  8
0
  6
CENTER
 62
     2
 10
176.4368
 20
71.0
 11
176.4368
 21
43.5
  0
LINE
  8
0
  6
CONTINUOUS
 62
     7
 10
177.2868
 20
58.0
 11
177.2868
 21
55.05063
  0
LINE
  8
0
  6
CONTINUOUS
 62
     7
 10
175.5868
 20
58.0
 11
175.5868
 21
55.50615
  0
LINE
  8
0
  6
CONTINUOUS
 62
     7
 10
176.7568
 20
68.0
 11
176.7568
 21
58.0
  0
LINE
  8
0
  6
CONTINUOUS
 62
     7
 10
176.1168
 20
68.0
 11
176.1168
 21
58.0
  0
LINE
  8
0
  6
CONTINUOUS
 62
     7
 10
179.7568
 20
68.0
 11
179.7568
 21
58.0
  0
LINE
  8
0
  6
CONTINUOUS
 62
     7
 10
179.1168
 20
68.0
 11
179.1168
 21
58.0
  0
LINE
  8
0
  6
CONTINUOUS
 62
     7
 10
180.2868
 20
58.0
 11
180.2868
 21
54.24678
  0
LINE
  8
0
  6
CONTINUOUS
 62
     7
 10
178.5868
 20
58.0
 11
178.5868
 21
54.7023
  0
LINE
  8
0
  6
CONTINUOUS
 62
     7
 10
176.1168
 20
68.0
 11
176.7568
 21
68.0
  0
LINE
  8
0
  6
CONTINUOUS
 62
     7
 10
179.1168
 20
68.0
 11
179.7568
 21
68.0
  0
LINE
  8
0
  6
CONTINUOUS
 62
     7
 10
175.5868
 20
58.0
 11
177.2868
 21
58.0
  0
LINE
  8
0
  6
CONTINUOUS
 62
     7
 10
178.5868
 20
58.0
 11
180.2868
 21
58.0
  0
LINE
  8
0
  6
CONTINUOUS
 62
     7
 10
182.4368
 20
47.2
 11
185.4368
 21
47.2
  0
LINE
  8
0
  6
CONTINUOUS
 62
     7
 10
177.2868
 20
48.2
 11
178.5868
 21
48.2
  0
LINE
  8
0
  6
CONTINUOUS
 62
     7
 10
180.2868
 20
48.2
 11
185.4368
 21
48.2
  0
LINE
  8
0
  6
CONTINUOUS
 62
     7
 10
180.2868
 20
50.2
 11
184.4368
 21
50.2
  0
LINE
  8
0
  6
CONTINUOUS
 62
     7
 10
177.2868
 20
50.2
 11
178.5868
 21
50.2
  0
LINE
  8
0
  6
PHANTOM
 62
     2
 10
173.5868
 20
54.48909
 11
182.2868
 21
52.15793
  0
LINE
  8
0
  6
PHANTOM
 62
     2
 10
173.5867
 20
56.04201
 11
182.2867
 21
53.71085
  0
LINE
  8
0
  6
CONTINUOUS
 62
     7
 10
175.5868
 20
53.95323
 11
175.5868
 21
48.0
  0
LINE
  8
0
  6
CONTINUOUS
 62
     7
 10
177.2868
 20
53.49773
 11
177.2868
 21
48.0
  0
LINE
  8
0
  6
CONTINUOUS
 62
     7
 10
178.5868
 20
53.14938
 11
178.5868
 21
48.0
  0
LINE
  8
0
  6
CONTINUOUS
 62
     7
 10
180.2868
 20
52.69386
 11
180.2868
 21
48.0
  0
LINE
  8
0
  6
CENTER
 62
     2
 10
173.9368
 20
34.5
 11
181.9368
 21
34.5
  0
LINE
  8
0
  6
CONTINUOUS
 62
     7
 10
171.7368
 20
46.5
 11
184.1368
 21
46.5
  0
LINE
  8
0
  6
CONTINUOUS
 62
     7
 10
173.9368
 20
48.0
 11
181.9368
 21
48.0
  0
LINE
  8
0
  6
CONTINUOUS
 62
     7
 10
173.4368
 20
47.5
 11
173.4368
 21
46.5
  0
LINE
  8
0
  6
CONTINUOUS
 62
     7
 10
182.4368
 20
47.5
 11
182.4368
 21
46.5
  0
LINE
  8
0
  6
CENTER
 62
     2
 10
177.9368
 20
108.1858
 11
177.9368
 21
146.9999
  0
LINE
  8
0
  6
CENTER
 62
     2
 10
167.9884
 20
133.0
 11
187.9246
 21
133.0
  0
LINE
  8
0
  6
CONTINUOUS
 62
     7
 10
176.4368
 20
124.0
 11
176.4368
 21
121.0
  0
LINE
  8
0
  6
CONTINUOUS
 62
     7
 10
179.4368
 20
142.0
 11
179.4368
 21
145.0
  0
LINE
  8
0
  6
CONTINUOUS
 62
     7
 10
182.4368
 20
139.0
 11
185.4368
 21
139.0
  0
LINE
  8
0
  6
CONTINUOUS
 62
     7
 10
173.4368
 20
127.0
 11
170.4368
 21
127.0
  0
LINE
  8
0
  6
CONTINUOUS
 62
     7
 10
179.4368
 20
144.0
 11
171.4368
 21
144.0
  0
LINE
  8
0
  6
CONTINUOUS
 62
     7
 10
184.4368
 20
122.0
 11
176.4368
 21
122.0
  0
LINE
  8
0
  6
CONTINUOUS
 62
     7
 10
184.4368
 20
139.0
 11
184.4368
 21
122.0
  0
LINE
  8
0
  6
CONTINUOUS
 62
     7
 10
171.4368
 20
144.0
 11
171.4368
 21
127.0
  0
LINE
  8
0
  6
CONTINUOUS
 62
     7
 10
171.2068
 20
123.7
 11
170.9045
 21
123.7
  0
LINE
  8
0
  6
CONTINUOUS
 62
     7
 10
171.2068
 20
124.3
 11
170.9045
 21
124.3
  0
LINE
  8
0
  6
CONTINUOUS
 62
     7
 10
170.9287
 20
124.4608
 11
171.2345
 21
124.4608
  0
LINE
  8
0
  6
CONTINUOUS
 62
     7
 10
184.6667
 20
142.3
 11
184.9691
 21
142.3
  0
LINE
  8
0
  6
CONTINUOUS
 62
     7
 10
184.6667
 20
141.7
 11
184.9691
 21
141.7
  0
LINE
  8
0
  6
CONTINUOUS
 62
     7
 10
184.9448
 20
141.5392
 11
184.6391
 21
141.5392
  0
LINE
  8
0
  6
CONTINUOUS
 62
     7
 10
172.7014
 20
125.1031
 11
173.0691
 21
124.7354
  0
LINE
  8
0
  6
CONTINUOUS
 62
     7
 10
172.3338
 20
124.7355
 11
172.7015
 21
124.3678
  0
LINE
  8
0
  6
CONTINUOUS
 62
     7
 10
172.7015
 20
125.103
 11
172.3338
 21
124.7353
  0
LINE
  8
0
  6
CONTINUOUS
 62
     7
 10
174.5399
 20
123.2646
 11
174.1722
 21
122.8969
  0
LINE
  8
0
  6
CONTINUOUS
 62
     7
 10
174.8334
 20
125.7641
 11
173.8046
 21
124.7353
  0
LINE
  8
0
  6
CONTINUOUS
 62
     7
 10
175.201
 20
125.3964
 11
174.1723
 21
124.3676
  0
LINE
  8
0
  6
CONTINUOUS
 62
     7
 10
174.1722
 20
123.6323
 11
174.5399
 21
123.2646
  0
LINE
  8
0
  6
CONTINUOUS
 62
     7
 10
173.8046
 20
123.2647
 11
174.1723
 21
122.897
  0
LINE
  8
0
  6
CONTINUOUS
 62
     7
 10
172.7015
 20
123.6322
 11
171.6727
 21
122.6034
  0
LINE
  8
0
  6
CONTINUOUS
 62
     7
 10
173.0692
 20
123.2646
 11
172.0404
 21
122.2357
  0
LINE
  8
0
  6
CONTINUOUS
 62
     7
 10
181.7015
 20
143.1031
 11
182.0692
 21
142.7354
  0
LINE
  8
0
  6
CONTINUOUS
 62
     7
 10
181.3338
 20
142.7354
 11
181.7014
 21
142.3677
  0
LINE
  8
0
  6
CONTINUOUS
 62
     7
 10
181.7015
 20
143.1031
 11
181.3338
 21
142.7354
  0
LINE
  8
0
  6
CONTINUOUS
 62
     7
 10
183.5399
 20
141.2646
 11
183.1722
 21
140.8969
  0
LINE
  8
0
  6
CONTINUOUS
 62
     7
 10
183.8334
 20
143.7641
 11
182.8046
 21
142.7353
  0
LINE
  8
0
  6
CONTINUOUS
 62
     7
 10
184.201
 20
143.3964
 11
183.1722
 21
142.3676
  0
LINE
  8
0
  6
CONTINUOUS
 62
     7
 10
183.1723
 20
141.6323
 11
183.54
 21
141.2646
  0
LINE
  8
0
  6
CONTINUOUS
 62
     7
 10
182.8045
 20
141.2646
 11
183.1722
 21
140.897
  0
LINE
  8
0
  6
CONTINUOUS
 62
     7
 10
181.7015
 20
141.6322
 11
180.6727
 21
140.6034
  0
LINE
  8
0
  6
CONTINUOUS
 62
     7
 10
182.0692
 20
141.2645
 11
181.0403
 21
140.2357
  0
LINE
  8
0
  6
CENTER
 62
     2
 10
177.4368
 20
124.0
 11
169.4368
 21
124.0
  0
LINE
  8
0
  6
CENTER
 62
     2
 10
186.4368
 20
142.0
 11
178.4368
 21
142.0
  0
LINE
  8
0
  6
CENTER
 62
     2
 10
182.4368
 20
146.0
 11
182.4368
 21
138.0
  0
LINE
  8
0
  6
CENTER
 62
     2
 10
173.4368
 20
128.0
 11
173.4368
 21
120.0
  0
LINE
  8
0
  6
CONTINUOUS
 62
     7
 10
184.9368
 20
145.0
 11
170.9368
 21
145.0
  0
LINE
  8
0
  6
CONTINUOUS
 62
     7
 10
185.4368
 20
144.5
 11
185.4368
 21
121.0
  0
LINE
  8
0
  6
CONTINUOUS
 62
     7
 10
170.4368
 20
144.5
 11
170.4368
 21
121.0
  0
LINE
  8
0
  6
CONTINUOUS
 62
     7
 10
185.4368
 20
121.0
 11
170.4368
 21
121.0
  0
LINE
  8
0
  6
CONTINUOUS
 62
     7
 10
184.9368
 20
121.0
 11
184.9368
 21
111.8
  0
LINE
  8
0
  6
CONTINUOUS
 62
     7
 10
184.1368
 20
111.0
 11
171.7368
 21
111.0
  0
LINE
  8
0
  6
CONTINUOUS
 62
     7
 10
170.9368
 20
121.0
 11
170.9368
 21
111.8
  0
LINE
  8
0
  6
CENTER
 62
     2
 10
184.1368
 20
116.5
 11
171.7368
 21
116.5
  0
LINE
  8
0
  6
CENTER
 62
     2
 10
179.4368
 20
120.5
 11
179.4368
 21
112.5
  0
LINE
  8
0
  6
CENTER
 62
     2
 10
176.4368
 20
120.5
 11
176.4368
 21
112.5
  0
LINE
  8
0
  6
CONTINUOUS
 62
     7
 10
178.9368
 20
120.0
 11
176.9368
 21
120.0
  0
LINE
  8
0
  6
CONTINUOUS
 62
     7
 10
178.9368
 20
113.0
 11
176.9368
 21
113.0
  0
LINE
  8
0
  6
CONTINUOUS
 62
     7
 10
22.4368
 20
21.99995
 11
55.63681
 21
21.99995
  0
LINE
  8
0
  6
CONTINUOUS
 62
     7
 10
22.4368
 20
48.19997
 11
22.4368
 21
-30.00005
  0
LINE
  8
0
  6
CONTINUOUS
 62
     7
 10
22.4368
 20
4.99995
 11
46.4368
 21
4.99995
  0
LINE
  8
0
  6
CENTER
 62
     2
 10
34.4368
 20
53.19997
 11
34.4368
 21
-32.80003
  0
LINE
  8
0
  6
CONTINUOUS
 62
     7
 10
46.4368
 20
48.19997
 11
46.4368
 21
-30.00005
  0
LINE
  8
0
  6
CONTINUOUS
 62
     7
 10
22.4368
 20
-23.00005
 11
46.4368
 21
-23.00005
  0
LINE
  8
0
  6
CONTINUOUS
 62
     7
 10
22.9368
 20
-30.50005
 11
45.9368
 21
-30.50005
  0
LINE
  8
0
  6
CONTINUOUS
 62
     7
 10
40.73682
 20
-25.50005
 11
45.9368
 21
-25.50005
  0
LINE
  8
0
  6
CENTER
 62
     2
 10
43.4368
 20
-23.70004
 11
43.4368
 21
-33.15004
  0
LINE
  8
0
  6
CONTINUOUS
 62
     7
 10
40.23682
 20
-26.00005
 11
40.23682
 21
-30.00005
  0
LINE
  8
0
  6
CONTINUOUS
 62
     7
 10
40.63678
 20
-26.67186
 11
40.63678
 21
-25.50005
  0
LINE
  8
0
  6
CONTINUOUS
 62
     7
 10
46.23679
 20
-26.67186
 11
46.23679
 21
-25.50005
  0
LINE
  8
0
  6
CENTER
 62
     2
 10
42.03232
 20
-0.00005
 11
47.26236
 21
-0.00005
  0
LINE
  8
0
  6
CONTINUOUS
 62
     7
 10
43.4368
 20
1.8138
 11
43.4368
 21
-1.81389
  0
LINE
  8
0
  6
CONTINUOUS
 62
     7
 10
43.4368
 20
1.8138
 11
46.4368
 21
1.8138
  0
LINE
  8
0
  6
CONTINUOUS
 62
     7
 10
43.4368
 20
-1.81389
 11
46.4368
 21
-1.81389
  0
LINE
  8
0
  6
CONTINUOUS
 62
     7
 10
22.4368
 20
47.19997
 11
46.4368
 21
47.19997
  0
LINE
  8
0
  6
CONTINUOUS
 62
     7
 10
56.4368
 20
45.69997
 11
56.4368
 21
22.79996
  0
LINE
  8
0
  6
CONTINUOUS
 62
     7
 10
23.4368
 20
50.19997
 11
41.61102
 21
50.19997
  0
LINE
  8
0
  6
CONTINUOUS
 62
     7
 10
22.4368
 20
48.19997
 11
46.4368
 21
48.19997
  0
LINE
  8
0
  6
CONTINUOUS
 62
     7
 10
22.43677
 20
48.19996
 11
23.43677
 21
50.19996
  0
LINE
  8
0
  6
CONTINUOUS
 62
     7
 10
46.43676
 20
48.19994
 11
45.43676
 21
50.19995
  0
LINE
  8
0
  6
CONTINUOUS
 62
     7
 10
40.4368
 20
50.19997
 11
40.4368
 21
48.19997
  0
LINE
  8
0
  6
CENTER
 62
     2
 10
43.4368
 20
53.19997
 11
43.4368
 21
44.19997
  0
LINE
  8
0
  6
CONTINUOUS
 62
     7
 10
45.98679
 20
48.79996
 11
40.88681
 21
48.79996
  0
LINE
  8
0
  6
CONTINUOUS
 62
     7
 10
43.13677
 20
48.19997
 11
42.976
 21
48.79996
  0
LINE
  8
0
  6
CONTINUOUS
 62
     7
 10
43.73695
 20
48.79998
 11
43.89772
 21
48.19999
  0
LINE
  8
0
  6
CONTINUOUS
 62
     7
 10
45.98679
 20
48.79996
 11
45.98679
 21
48.19997
  0
LINE
  8
0
  6
CONTINUOUS
 62
     7
 10
40.88681
 20
48.79996
 11
40.88681
 21
48.19997
  0
LINE
  8
0
  6
CONTINUOUS
 62
     7
 10
45.68683
 20
49.4937
 11
45.68683
 21
48.79996
  0
LINE
  8
0
  6
CONTINUOUS
 62
     7
 10
41.18683
 20
49.4937
 11
41.18683
 21
48.79996
  0
LINE
  8
0
  6
CONTINUOUS
 62
     7
 10
45.26257
 20
50.19997
 11
45.4368
 21
50.19997
  0
LINE
  8
0
  6
CENTER
 62
     2
 10
25.4368
 20
53.19997
 11
25.4368
 21
44.19997
  0
LINE
  8
0
  6
CENTER
 62
     2
 10
50.9368
 20
70.99995
 11
50.9368
 21
43.49995
  0
LINE
  8
0
  6
CONTINUOUS
 62
     7
 10
50.08679
 20
57.99995
 11
50.08679
 21
54.00417
  0
LINE
  8
0
  6
CONTINUOUS
 62
     7
 10
51.7868
 20
57.99995
 11
51.7868
 21
53.54866
  0
LINE
  8
0
  6
CONTINUOUS
 62
     7
 10
50.61679
 20
67.99995
 11
50.61679
 21
57.99995
  0
LINE
  8
0
  6
CONTINUOUS
 62
     7
 10
51.25681
 20
67.99995
 11
51.25681
 21
57.99995
  0
LINE
  8
0
  6
CONTINUOUS
 62
     7
 10
51.7868
 20
57.99995
 11
50.08679
 21
57.99995
  0
LINE
  8
0
  6
CONTINUOUS
 62
     7
 10
51.25681
 20
67.99995
 11
50.61679
 21
67.99995
  0
LINE
  8
0
  6
PHANTOM
 62
     2
 10
48.0868
 20
52.98714
 11
53.78679
 21
51.45984
  0
LINE
  8
0
  6
PHANTOM
 62
     2
 10
48.08681
 20
54.54004
 11
53.7868
 21
53.01273
  0
LINE
  8
0
  6
CONTINUOUS
 62
     7
 10
51.7868
 20
51.99574
 11
51.7868
 21
47.99995
  0
LINE
  8
0
  6
CONTINUOUS
 62
     7
 10
50.08679
 20
52.45125
 11
50.08679
 21
47.99995
  0
LINE
  8
0
  6
CONTINUOUS
 62
     7
 10
47.4368
 20
47.49995
 11
47.4368
 21
46.49995
  0
LINE
  8
0
  6
CONTINUOUS
 62
     7
 10
53.9368
 20
47.99995
 11
47.9368
 21
47.99995
  0
LINE
  8
0
  6
CONTINUOUS
 62
     7
 10
54.4368
 20
47.49995
 11
54.4368
 21
46.49995
  0
LINE
  8
0
  6
CONTINUOUS
 62
     7
 10
46.4368
 20
46.49995
 11
55.63681
 21
46.49995
  0
ARC
  8
0
  6
CONTINUOUS
 62
     7
 10
273.0354
 20
-235.0457
 40
2.21188
 50
0.0
 51
89.99999
  0
ARC
  8
0
  6
CONTINUOUS
 62
     7
 10
291.2836
 20
-246.9346
 40
2.2119
 50
270.0
 51
0.0
  0
ARC
  8
0
  6
CONTINUOUS
 62
     7
 10
290.1776
 20
-236.1516
 40
3.31784
 50
0.0
 51
89.99999
  0
ARC
  8
0
  6
CONTINUOUS
 62
     7
 10
310.3611
 20
-236.8128
 40
2.21189
 50
295.0
 51
0.0
  0
ARC
  8
0
  6
CONTINUOUS
 62
     7
 10
310.3611
 20
-235.0457
 40
2.21188
 50
0.0
 51
89.99999
  0
ARC
  8
0
  6
CONTINUOUS
 62
     7
 10
327.5034
 20
-232.8338
 40
3.31784
 50
291.6884
 51
0.0
  0
ARC
  8
0
  6
CONTINUOUS
 62
     7
 10
326.3973
 20
-232.0834
 40
1.10595
 50
291.689
 51
0.0
  0
ARC
  8
0
  6
CONTINUOUS
 62
     7
 10
173.4368
 20
-160.0
 40
3.2
 50
270.0
 51
0.0
  0
ARC
  8
0
  6
CONTINUOUS
 62
     7
 10
182.4368
 20
-178.0
 40
3.2
 50
89.99999
 51
180.0
  0
ARC
  8
0
  6
CONTINUOUS
 62
     7
 10
174.4905
 20
-168.2466
 40
0.35345
 50
0.0
 51
89.99999
  0
ARC
  8
0
  6
CONTINUOUS
 62
     7
 10
177.4066
 20
-170.1465
 40
0.35345
 50
270.0
 51
0.0
  0
ARC
  8
0
  6
CONTINUOUS
 62
     7
 10
177.2299
 20
-168.4234
 40
0.5302
 50
0.0
 51
89.99999
  0
ARC
  8
0
  6
CONTINUOUS
 62
     7
 10
180.4552
 20
-168.2466
 40
0.35345
 50
0.0
 51
89.99999
  0
ARC
  8
0
  6
CONTINUOUS
 62
     7
 10
180.4552
 20
-168.529
 40
0.35346
 50
295.0008
 51
0.0
  0
ARC
  8
0
  6
CONTINUOUS
 62
     7
 10
183.1945
 20
-167.8932
 40
0.53019
 50
291.6884
 51
0.0
  0
ARC
  8
0
  6
CONTINUOUS
 62
     7
 10
183.0178
 20
-167.7733
 40
0.17672
 50
291.6875
 51
0.0
  0
ARC
  8
0
  6
CONTINUOUS
 62
     7
 10
170.9368
 20
-180.5
 40
0.5
 50
180.0
 51
270.0
  0
ARC
  8
0
  6
CONTINUOUS
 62
     7
 10
184.9368
 20
-180.5
 40
0.5
 50
270.0
 51
0.0
  0
CIRCLE
  8
0
  6
CONTINUOUS
 62
     7
 10
173.4368
 20
-160.0
 40
2.8
  0
ARC
  8
0
  6
CONTINUOUS
 62
     7
 10
172.164
 20
-160.0
 40
0.60001
 50
315.0
 51
45.0
  0
ARC
  8
0
  6
CONTINUOUS
 62
     7
 10
173.4368
 20
-161.2728
 40
0.60001
 50
45.0
 51
135.0
  0
ARC
  8
0
  6
CONTINUOUS
 62
     7
 10
173.4368
 20
-158.7272
 40
0.60001
 50
225.0
 51
315.0
  0
ARC
  8
0
  6
CONTINUOUS
 62
     7
 10
174.7096
 20
-160.0
 40
0.60001
 50
135.0
 51
225.0
  0
CIRCLE
  8
0
  6
CONTINUOUS
 62
     7
 10
182.4368
 20
-178.0
 40
2.8
  0
ARC
  8
0
  6
CONTINUOUS
 62
     7
 10
181.164
 20
-178.0
 40
0.60001
 50
315.0
 51
45.0
  0
ARC
  8
0
  6
CONTINUOUS
 62
     7
 10
182.4368
 20
-179.2728
 40
0.60001
 50
45.0
 51
135.0
  0
ARC
  8
0
  6
CONTINUOUS
 62
     7
 10
182.4368
 20
-176.7272
 40
0.60001
 50
225.0
 51
315.0
  0
ARC
  8
0
  6
CONTINUOUS
 62
     7
 10
183.7096
 20
-178.0
 40
0.60001
 50
135.0
 51
225.0
  0
ARC
  8
0
  6
CONTINUOUS
 62
     7
 10
171.7368
 20
-147.8
 40
0.8
 50
89.99999
 51
180.0
  0
ARC
  8
0
  6
CONTINUOUS
 62
     7
 10
184.1368
 20
-147.8
 40
0.8
 50
0.0
 51
89.99999
  0
ARC
  8
0
  6
CONTINUOUS
 62
     7
 10
331.9368
 20
-30.00003
 40
0.5
 50
270.0
 51
0.0
  0
ARC
  8
0
  6
CONTINUOUS
 62
     7
 10
308.9368
 20
-30.00003
 40
0.5
 50
180.0
 51
270.0
  0
ARC
  8
0
  6
CONTINUOUS
 62
     7
 10
314.1368
 20
-26.00003
 40
0.5
 50
0.0
 51
89.99999
  0
ARC
  8
0
  6
CONTINUOUS
 62
     7
 10
315.1368
 20
-30.00003
 40
0.5
 50
180.0
 51
270.0
  0
ARC
  8
0
  6
CONTINUOUS
 62
     7
 10
308.9368
 20
-25.00003
 40
0.5
 50
180.0
 51
270.0
  0
ARC
  8
0
  6
CONTINUOUS
 62
     7
 10
311.4368
 20
-22.90002
 40
5.00001
 50
240.5075
 51
299.4925
  0
ARC
  8
0
  6
CONTINUOUS
 62
     7
 10
313.5702
 20
-26.67186
 40
0.66667
 50
299.4933
 51
0.0
  0
ARC
  8
0
  6
CONTINUOUS
 62
     7
 10
309.3035
 20
-26.67186
 40
0.66666
 50
180.0
 51
240.5067
  0
ARC
  8
0
  6
CONTINUOUS
 62
     7
 10
299.2368
 20
22.79997
 40
0.79999
 50
180.0
 51
270.0
  0
ARC
  8
0
  6
CONTINUOUS
 62
     7
 10
329.4368
 20
44.49997
 40
6.0
 50
73.80876
 51
106.1912
  0
ARC
  8
0
  6
CONTINUOUS
 62
     7
 10
330.8868
 20
49.49373
 40
0.79999
 50
0.0
 51
73.8082
  0
ARC
  8
0
  6
CONTINUOUS
 62
     7
 10
327.9868
 20
49.49373
 40
0.8
 50
106.1918
 51
180.0
  0
ARC
  8
0
  6
CONTINUOUS
 62
     7
 10
311.4368
 20
44.49995
 40
6.0
 50
73.80876
 51
106.1912
  0
ARC
  8
0
  6
CONTINUOUS
 62
     7
 10
309.9868
 20
49.4937
 40
0.8
 50
106.1918
 51
118.0148
  0
ARC
  8
0
  6
CONTINUOUS
 62
     7
 10
312.8868
 20
49.4937
 40
0.80001
 50
61.98524
 51
73.8082
  0
ARC
  8
0
  6
CONTINUOUS
 62
     7
 10
299.2368
 20
45.69997
 40
0.8
 50
89.99999
 51
180.0
  0
ARC
  8
0
  6
CONTINUOUS
 62
     7
 10
300.9368
 20
47.49997
 40
0.5
 50
89.99999
 51
180.0
  0
ARC
  8
0
  6
CONTINUOUS
 62
     7
 10
306.9368
 20
47.49997
 40
0.5
 50
0.0
 51
89.99999
  0
CIRCLE
  8
0
  6
CONTINUOUS
 62
     7
 10
-189.9368
 20
18.5
 40
1.65
  0
ARC
  8
0
  6
CONTINUOUS
 62
     7
 10
-196.9368
 20
-30.0
 40
0.5
 50
180.0
 51
270.0
  0
ARC
  8
0
  6
CONTINUOUS
 62
     7
 10
-182.9368
 20
-30.0
 40
0.5
 50
270.0
 51
0.0
  0
ARC
  8
0
  6
CONTINUOUS
 62
     7
 10
-191.7368
 20
-26.0
 40
0.5
 50
0.0
 51
89.99999
  0
ARC
  8
0
  6
CONTINUOUS
 62
     7
 10
-196.9368
 20
-25.0
 40
0.5
 50
180.0
 51
270.0
  0
ARC
  8
0
  6
CONTINUOUS
 62
     7
 10
-190.7368
 20
-30.0
 40
0.5
 50
180.0
 51
270.0
  0
CIRCLE
  8
0
  6
CONTINUOUS
 62
     7
 10
-186.9368
 20
-4.0
 40
1.75
  0
CIRCLE
  8
0
  6
CONTINUOUS
 62
     7
 10
-186.9368
 20
-4.0
 40
2.5
  0
CIRCLE
  8
0
  6
CONTINUOUS
 62
     7
 10
-195.4368
 20
0.0
 40
1.4
  0
CIRCLE
  8
0
  6
CONTINUOUS
 62
     7
 10
-184.4368
 20
-18.0
 40
1.4
  0
ARC
  8
0
  6
CONTINUOUS
 62
     7
 10
-184.4368
 20
-18.0
 40
2.7
 50
42.20544
 51
317.7946
  0
ARC
  8
0
  6
CONTINUOUS
 62
     7
 10
-195.4368
 20
0.0
 40
2.7
 50
0.0
 51
137.7946
  0
ARC
  8
0
  6
CONTINUOUS
 62
     7
 10
-195.4368
 20
0.0
 40
2.7
 50
222.2054
 51
0.0
  0
ARC
  8
0
  6
CONTINUOUS
 62
     7
 10
-194.4368
 20
-22.89999
 40
5.0
 50
240.5077
 51
299.4923
  0
ARC
  8
0
  6
CONTINUOUS
 62
     7
 10
-196.5701
 20
-26.67183
 40
0.66667
 50
180.0
 51
240.5079
  0
ARC
  8
0
  6
CONTINUOUS
 62
     7
 10
-192.3034
 20
-26.67183
 40
0.66666
 50
299.4921
 51
0.0
  0
ARC
  8
0
  6
CONTINUOUS
 62
     7
 10
-185.9368
 20
47.5
 40
0.5
 50
0.0
 51
89.99999
  0
ARC
  8
0
  6
CONTINUOUS
 62
     7
 10
-193.9368
 20
47.5
 40
0.5
 50
89.99999
 51
180.0
  0
ARC
  8
0
  6
CONTINUOUS
 62
     7
 10
-196.1368
 20
22.8
 40
0.8
 50
180.0
 51
270.0
  0
ARC
  8
0
  6
CONTINUOUS
 62
     7
 10
-183.7368
 20
22.8
 40
0.8
 50
270.0
 51
0.0
  0
ARC
  8
0
  6
CONTINUOUS
 62
     7
 10
-194.4368
 20
44.5
 40
6.0
 50
73.80862
 51
106.1914
  0
ARC
  8
0
  6
CONTINUOUS
 62
     7
 10
-192.9868
 20
49.49374
 40
0.79999
 50
28.95467
 51
73.8082
  0
ARC
  8
0
  6
CONTINUOUS
 62
     7
 10
-195.8868
 20
49.49374
 40
0.8
 50
106.1918
 51
180.0
  0
ARC
  8
0
  6
CONTINUOUS
 62
     7
 10
-185.4368
 20
44.5
 40
6.0
 50
73.80862
 51
106.1914
  0
ARC
  8
0
  6
CONTINUOUS
 62
     7
 10
-186.8868
 20
49.49374
 40
0.8
 50
106.1918
 51
118.0138
  0
ARC
  8
0
  6
CONTINUOUS
 62
     7
 10
-183.9868
 20
49.49374
 40
0.8
 50
61.98621
 51
73.8082
  0
ARC
  8
0
  6
CONTINUOUS
 62
     7
 10
-196.1368
 20
45.70001
 40
0.8
 50
89.99999
 51
180.0
  0
ARC
  8
0
  6
CONTINUOUS
 62
     7
 10
-183.7368
 20
45.70001
 40
0.8
 50
0.0
 51
89.99999
  0
ARC
  8
0
  6
CONTINUOUS
 62
     7
 10
-194.4368
 20
124.0
 40
3.0
 50
0.0
 51
89.99999
  0
ARC
  8
0
  6
CONTINUOUS
 62
     7
 10
-185.4368
 20
142.0
 40
3.0
 50
180.0
 51
270.0
  0
ARC
  8
0
  6
CONTINUOUS
 62
     7
 10
-194.4368
 20
124.0
 40
2.55
 50
186.7564
 51
173.2438
  0
ARC
  8
0
  6
CONTINUOUS
 62
     7
 10
-185.4368
 20
142.0
 40
2.55
 50
6.75641
 51
353.2436
  0
CIRCLE
  8
0
  6
CONTINUOUS
 62
     7
 10
-194.4368
 20
124.0
 40
2.25
  0
ARC
  8
0
  6
CONTINUOUS
 62
     7
 10
-193.3337
 20
124.0
 40
0.52
 50
134.9994
 51
225.0006
  0
ARC
  8
0
  6
CONTINUOUS
 62
     7
 10
-194.4368
 20
125.1031
 40
0.52
 50
225.0006
 51
314.9994
  0
ARC
  8
0
  6
CONTINUOUS
 62
     7
 10
-194.4368
 20
122.8969
 40
0.52
 50
45.0006
 51
134.9994
  0
ARC
  8
0
  6
CONTINUOUS
 62
     7
 10
-195.5399
 20
124.0
 40
0.52
 50
314.9994
 51
45.0006
  0
CIRCLE
  8
0
  6
CONTINUOUS
 62
     7
 10
-185.4368
 20
142.0
 40
2.25
  0
ARC
  8
0
  6
CONTINUOUS
 62
     7
 10
-184.3337
 20
142.0
 40
0.51999
 50
135.0
 51
225.0
  0
ARC
  8
0
  6
CONTINUOUS
 62
     7
 10
-185.4368
 20
143.1031
 40
0.51999
 50
225.0
 51
315.0
  0
ARC
  8
0
  6
CONTINUOUS
 62
     7
 10
-185.4368
 20
140.8969
 40
0.51999
 50
45.0
 51
135.0
  0
ARC
  8
0
  6
CONTINUOUS
 62
     7
 10
-186.5399
 20
142.0
 40
0.51999
 50
315.0
 51
45.0
  0
ARC
  8
0
  6
CONTINUOUS
 62
     7
 10
-182.9368
 20
144.5
 40
0.5
 50
0.0
 51
89.99999
  0
ARC
  8
0
  6
CONTINUOUS
 62
     7
 10
-196.9368
 20
144.5
 40
0.5
 50
89.99999
 51
180.0
  0
ARC
  8
0
  6
CONTINUOUS
 62
     7
 10
-183.7368
 20
111.8
 40
0.8
 50
270.0
 51
0.0
  0
ARC
  8
0
  6
CONTINUOUS
 62
     7
 10
-196.1368
 20
111.8
 40
0.8
 50
180.0
 51
270.0
  0
ARC
  8
0
  6
CONTINUOUS
 62
     7
 10
-188.9368
 20
116.5
 40
3.5
 50
270.0
 51
89.99999
  0
ARC
  8
0
  6
CONTINUOUS
 62
     7
 10
-190.9368
 20
116.5
 40
3.5
 50
89.99999
 51
270.0
  0
CIRCLE
  8
0
  6
CONTINUOUS
 62
     7
 10
-191.4368
 20
116.5
 40
0.85
  0
CIRCLE
  8
0
  6
CONTINUOUS
 62
     7
 10
-188.4368
 20
116.5
 40
0.85
  0
ARC
  8
0
  6
CONTINUOUS
 62
     7
 10
-344.9368
 20
-30.00003
 40
0.5
 50
180.0
 51
270.0
  0
ARC
  8
0
  6
CONTINUOUS
 62
     7
 10
-321.9368
 20
-30.00003
 40
0.5
 50
270.0
 51
0.0
  0
ARC
  8
0
  6
CONTINUOUS
 62
     7
 10
-327.1368
 20
-26.00003
 40
0.5
 50
89.99999
 51
180.0
  0
ARC
  8
0
  6
CONTINUOUS
 62
     7
 10
-328.1368
 20
-30.00003
 40
0.5
 50
270.0
 51
0.0
  0
ARC
  8
0
  6
CONTINUOUS
 62
     7
 10
-321.9368
 20
-25.00003
 40
0.5
 50
270.0
 51
0.0
  0
ARC
  8
0
  6
CONTINUOUS
 62
     7
 10
-324.4368
 20
-22.90002
 40
5.00001
 50
240.5075
 51
299.4925
  0
ARC
  8
0
  6
CONTINUOUS
 62
     7
 10
-326.5701
 20
-26.67184
 40
0.66666
 50
180.0
 51
240.5067
  0
ARC
  8
0
  6
CONTINUOUS
 62
     7
 10
-322.3034
 20
-26.67184
 40
0.66667
 50
299.4933
 51
0.0
  0
ARC
  8
0
  6
CONTINUOUS
 62
     7
 10
-312.2368
 20
22.79997
 40
0.8
 50
270.0
 51
0.0
  0
ARC
  8
0
  6
CONTINUOUS
 62
     7
 10
-324.4368
 20
44.49997
 40
6.0
 50
73.80876
 51
106.1912
  0
ARC
  8
0
  6
CONTINUOUS
 62
     7
 10
-322.9868
 20
49.49371
 40
0.79999
 50
0.0
 51
73.8082
  0
ARC
  8
0
  6
CONTINUOUS
 62
     7
 10
-325.8868
 20
49.49371
 40
0.8
 50
106.1918
 51
180.0
  0
ARC
  8
0
  6
CONTINUOUS
 62
     7
 10
-342.4368
 20
44.49997
 40
6.0
 50
73.80876
 51
106.1912
  0
ARC
  8
0
  6
CONTINUOUS
 62
     7
 10
-343.8868
 20
49.49371
 40
0.8
 50
106.1918
 51
118.0148
  0
ARC
  8
0
  6
CONTINUOUS
 62
     7
 10
-340.9868
 20
49.49371
 40
0.80001
 50
61.98524
 51
73.8082
  0
ARC
  8
0
  6
CONTINUOUS
 62
     7
 10
-312.2368
 20
45.69998
 40
0.79999
 50
0.0
 51
89.99999
  0
ARC
  8
0
  6
CONTINUOUS
 62
     7
 10
-319.9368
 20
47.49997
 40
0.5
 50
89.99999
 51
180.0
  0
ARC
  8
0
  6
CONTINUOUS
 62
     7
 10
-313.9368
 20
47.49997
 40
0.5
 50
0.0
 51
89.99999
  0
ARC
  8
0
  6
CONTINUOUS
 62
     7
 10
-35.93675
 20
-30.0
 40
0.5
 50
270.0
 51
0.0
  0
ARC
  8
0
  6
CONTINUOUS
 62
     7
 10
-58.93675
 20
-30.0
 40
0.5
 50
180.0
 51
270.0
  0
ARC
  8
0
  6
CONTINUOUS
 62
     7
 10
-41.13675
 20
-26.0
 40
0.5
 50
89.99999
 51
180.0
  0
ARC
  8
0
  6
CONTINUOUS
 62
     7
 10
-42.13675
 20
-30.0
 40
0.5
 50
270.0
 51
0.0
  0
ARC
  8
0
  6
CONTINUOUS
 62
     7
 10
-35.93675
 20
-25.0
 40
0.5
 50
270.0
 51
0.0
  0
ARC
  8
0
  6
CONTINUOUS
 62
     7
 10
-38.43675
 20
-22.89999
 40
5.0
 50
240.5076
 51
299.4923
  0
ARC
  8
0
  6
CONTINUOUS
 62
     7
 10
-40.57008
 20
-26.67183
 40
0.66667
 50
180.0
 51
240.5076
  0
ARC
  8
0
  6
CONTINUOUS
 62
     7
 10
-36.30342
 20
-26.67183
 40
0.66667
 50
299.4924
 51
0.0
  0
ARC
  8
0
  6
CONTINUOUS
 62
     7
 10
-68.63676
 20
22.8
 40
0.8
 50
180.0
 51
270.0
  0
ARC
  8
0
  6
CONTINUOUS
 62
     7
 10
-38.43675
 20
44.5
 40
6.0
 50
73.80869
 51
106.1913
  0
ARC
  8
0
  6
CONTINUOUS
 62
     7
 10
-36.98674
 20
49.49374
 40
0.8
 50
0.0
 51
73.80872
  0
ARC
  8
0
  6
CONTINUOUS
 62
     7
 10
-39.88676
 20
49.49374
 40
0.8
 50
106.1913
 51
180.0
  0
ARC
  8
0
  6
CONTINUOUS
 62
     7
 10
-56.43675
 20
44.5
 40
6.0
 50
73.80865
 51
106.1913
  0
ARC
  8
0
  6
CONTINUOUS
 62
     7
 10
-57.88676
 20
49.49374
 40
0.8
 50
106.1913
 51
118.0138
  0
ARC
  8
0
  6
CONTINUOUS
 62
     7
 10
-54.98674
 20
49.49374
 40
0.8
 50
61.98621
 51
73.80872
  0
ARC
  8
0
  6
CONTINUOUS
 62
     7
 10
-68.63675
 20
45.70001
 40
0.8
 50
89.99999
 51
180.0
  0
ARC
  8
0
  6
CONTINUOUS
 62
     7
 10
-66.93675
 20
47.5
 40
0.5
 50
89.99999
 51
180.0
  0
ARC
  8
0
  6
CONTINUOUS
 62
     7
 10
-60.93675
 20
47.5
 40
0.5
 50
0.0
 51
89.99999
  0
ARC
  8
0
  6
CONTINUOUS
 62
     7
 10
-194.4368
 20
-159.9999
 40
3.2
 50
270.0
 51
0.0
  0
ARC
  8
0
  6
CONTINUOUS
 62
     7
 10
-185.4368
 20
-177.9999
 40
3.2
 50
89.99999
 51
180.0
  0
ARC
  8
0
  6
CONTINUOUS
 62
     7
 10
-193.383
 20
-168.2466
 40
0.35345
 50
0.0
 51
89.99999
  0
ARC
  8
0
  6
CONTINUOUS
 62
     7
 10
-190.467
 20
-170.1465
 40
0.35345
 50
270.0
 51
0.0
  0
ARC
  8
0
  6
CONTINUOUS
 62
     7
 10
-190.6437
 20
-168.4233
 40
0.5302
 50
0.0
 51
89.99999
  0
ARC
  8
0
  6
CONTINUOUS
 62
     7
 10
-187.4184
 20
-168.2466
 40
0.35345
 50
0.0
 51
89.99999
  0
ARC
  8
0
  6
CONTINUOUS
 62
     7
 10
-187.4184
 20
-168.529
 40
0.35346
 50
295.0008
 51
0.0
  0
ARC
  8
0
  6
CONTINUOUS
 62
     7
 10
-184.679
 20
-167.8932
 40
0.53019
 50
291.6884
 51
0.0
  0
ARC
  8
0
  6
CONTINUOUS
 62
     7
 10
-184.8558
 20
-167.7733
 40
0.17672
 50
291.6875
 51
0.0
  0
ARC
  8
0
  6
CONTINUOUS
 62
     7
 10
-196.9368
 20
-180.4999
 40
0.5
 50
180.0
 51
270.0
  0
ARC
  8
0
  6
CONTINUOUS
 62
     7
 10
-182.9368
 20
-180.4999
 40
0.5
 50
270.0
 51
0.0
  0
CIRCLE
  8
0
  6
CONTINUOUS
 62
     7
 10
-194.4368
 20
-159.9999
 40
2.8
  0
ARC
  8
0
  6
CONTINUOUS
 62
     7
 10
-195.7095
 20
-159.9999
 40
0.60001
 50
315.0
 51
45.0
  0
ARC
  8
0
  6
CONTINUOUS
 62
     7
 10
-194.4368
 20
-161.2727
 40
0.60001
 50
45.0
 51
135.0
  0
ARC
  8
0
  6
CONTINUOUS
 62
     7
 10
-194.4368
 20
-158.7271
 40
0.60001
 50
225.0
 51
315.0
  0
ARC
  8
0
  6
CONTINUOUS
 62
     7
 10
-193.164
 20
-159.9999
 40
0.60001
 50
135.0
 51
225.0
  0
CIRCLE
  8
0
  6
CONTINUOUS
 62
     7
 10
-185.4368
 20
-177.9999
 40
2.8
  0
ARC
  8
0
  6
CONTINUOUS
 62
     7
 10
-186.7096
 20
-177.9999
 40
0.60001
 50
315.0
 51
45.0
  0
ARC
  8
0
  6
CONTINUOUS
 62
     7
 10
-185.4368
 20
-179.2727
 40
0.60001
 50
45.0
 51
135.0
  0
ARC
  8
0
  6
CONTINUOUS
 62
     7
 10
-185.4368
 20
-176.7271
 40
0.60001
 50
225.0
 51
315.0
  0
ARC
  8
0
  6
CONTINUOUS
 62
     7
 10
-184.164
 20
-177.9999
 40
0.60001
 50
135.0
 51
225.0
  0
ARC
  8
0
  6
CONTINUOUS
 62
     7
 10
-196.1368
 20
-147.8
 40
0.8
 50
89.99999
 51
180.0
  0
ARC
  8
0
  6
CONTINUOUS
 62
     7
 10
-183.7368
 20
-147.8
 40
0.8
 50
0.0
 51
89.99999
  0
CIRCLE
  8
0
  6
CONTINUOUS
 62
     7
 10
177.9368
 20
18.5
 40
1.65
  0
ARC
  8
0
  6
CONTINUOUS
 62
     7
 10
170.9368
 20
-30.0
 40
0.5
 50
180.0
 51
270.0
  0
ARC
  8
0
  6
CONTINUOUS
 62
     7
 10
184.9368
 20
-30.0
 40
0.5
 50
270.0
 51
0.0
  0
ARC
  8
0
  6
CONTINUOUS
 62
     7
 10
176.1368
 20
-26.0
 40
0.5
 50
0.0
 51
89.99999
  0
ARC
  8
0
  6
CONTINUOUS
 62
     7
 10
170.9368
 20
-25.0
 40
0.5
 50
180.0
 51
270.0
  0
ARC
  8
0
  6
CONTINUOUS
 62
     7
 10
177.1368
 20
-30.0
 40
0.5
 50
180.0
 51
270.0
  0
CIRCLE
  8
0
  6
CONTINUOUS
 62
     7
 10
172.4368
 20
0.0
 40
1.4
  0
CIRCLE
  8
0
  6
CONTINUOUS
 62
     7
 10
183.4368
 20
-18.0
 40
1.4
  0
ARC
  8
0
  6
CONTINUOUS
 62
     7
 10
183.4368
 20
-18.0
 40
2.7
 50
42.20544
 51
317.7946
  0
ARC
  8
0
  6
CONTINUOUS
 62
     7
 10
172.4368
 20
0.0
 40
2.7
 50
0.0
 51
137.7946
  0
ARC
  8
0
  6
CONTINUOUS
 62
     7
 10
172.4368
 20
0.0
 40
2.7
 50
222.2054
 51
0.0
  0
ARC
  8
0
  6
CONTINUOUS
 62
     7
 10
173.4368
 20
-22.89999
 40
5.0
 50
240.5077
 51
299.4923
  0
ARC
  8
0
  6
CONTINUOUS
 62
     7
 10
171.3034
 20
-26.67183
 40
0.66667
 50
180.0
 51
240.5079
  0
ARC
  8
0
  6
CONTINUOUS
 62
     7
 10
175.5701
 20
-26.67183
 40
0.66666
 50
299.4921
 51
0.0
  0
ARC
  8
0
  6
CONTINUOUS
 62
     7
 10
181.9368
 20
47.5
 40
0.5
 50
0.0
 51
89.99999
  0
ARC
  8
0
  6
CONTINUOUS
 62
     7
 10
173.9368
 20
47.5
 40
0.5
 50
89.99999
 51
180.0
  0
ARC
  8
0
  6
CONTINUOUS
 62
     7
 10
171.7368
 20
22.8
 40
0.8
 50
180.0
 51
270.0
  0
ARC
  8
0
  6
CONTINUOUS
 62
     7
 10
184.1368
 20
22.8
 40
0.8
 50
270.0
 51
0.0
  0
ARC
  8
0
  6
CONTINUOUS
 62
     7
 10
173.4368
 20
44.49998
 40
6.0
 50
73.80862
 51
106.1914
  0
ARC
  8
0
  6
CONTINUOUS
 62
     7
 10
174.8868
 20
49.49373
 40
0.79999
 50
28.95467
 51
73.8082
  0
ARC
  8
0
  6
CONTINUOUS
 62
     7
 10
171.9868
 20
49.49373
 40
0.8
 50
106.1918
 51
180.0
  0
ARC
  8
0
  6
CONTINUOUS
 62
     7
 10
182.4368
 20
44.49998
 40
6.0
 50
73.80862
 51
106.1914
  0
ARC
  8
0
  6
CONTINUOUS
 62
     7
 10
180.9868
 20
49.49373
 40
0.8
 50
106.1918
 51
118.0138
  0
ARC
  8
0
  6
CONTINUOUS
 62
     7
 10
183.8868
 20
49.49373
 40
0.8
 50
61.98621
 51
73.8082
  0
ARC
  8
0
  6
CONTINUOUS
 62
     7
 10
171.7368
 20
45.7
 40
0.8
 50
89.99999
 51
180.0
  0
ARC
  8
0
  6
CONTINUOUS
 62
     7
 10
184.1368
 20
45.7
 40
0.8
 50
0.0
 51
89.99999
  0
ARC
  8
0
  6
CONTINUOUS
 62
     7
 10
173.4368
 20
124.0
 40
3.0
 50
0.0
 51
89.99999
  0
ARC
  8
0
  6
CONTINUOUS
 62
     7
 10
182.4368
 20
142.0
 40
3.0
 50
180.0
 51
270.0
  0
ARC
  8
0
  6
CONTINUOUS
 62
     7
 10
173.4368
 20
124.0
 40
2.55
 50
186.7564
 51
173.2438
  0
ARC
  8
0
  6
CONTINUOUS
 62
     7
 10
182.4368
 20
142.0
 40
2.55
 50
6.75641
 51
353.2436
  0
CIRCLE
  8
0
  6
CONTINUOUS
 62
     7
 10
173.4368
 20
124.0
 40
2.25
  0
ARC
  8
0
  6
CONTINUOUS
 62
     7
 10
174.5399
 20
124.0
 40
0.52
 50
134.9994
 51
225.0006
  0
ARC
  8
0
  6
CONTINUOUS
 62
     7
 10
173.4368
 20
125.1031
 40
0.52
 50
225.0006
 51
314.9994
  0
ARC
  8
0
  6
CONTINUOUS
 62
     7
 10
173.4368
 20
122.8969
 40
0.52
 50
45.0006
 51
134.9994
  0
ARC
  8
0
  6
CONTINUOUS
 62
     7
 10
172.3337
 20
124.0
 40
0.52
 50
314.9994
 51
45.0006
  0
CIRCLE
  8
0
  6
CONTINUOUS
 62
     7
 10
182.4368
 20
142.0
 40
2.25
  0
ARC
  8
0
  6
CONTINUOUS
 62
     7
 10
183.5399
 20
142.0
 40
0.51999
 50
135.0
 51
225.0
  0
ARC
  8
0
  6
CONTINUOUS
 62
     7
 10
182.4368
 20
143.1031
 40
0.51999
 50
225.0
 51
315.0
  0
ARC
  8
0
  6
CONTINUOUS
 62
     7
 10
182.4368
 20
140.8969
 40
0.51999
 50
45.0
 51
135.0
  0
ARC
  8
0
  6
CONTINUOUS
 62
     7
 10
181.3337
 20
142.0
 40
0.51999
 50
315.0
 51
45.0
  0
ARC
  8
0
  6
CONTINUOUS
 62
     7
 10
184.9368
 20
144.5
 40
0.5
 50
0.0
 51
89.99999
  0
ARC
  8
0
  6
CONTINUOUS
 62
     7
 10
170.9368
 20
144.5
 40
0.5
 50
89.99999
 51
180.0
  0
ARC
  8
0
  6
CONTINUOUS
 62
     7
 10
184.1368
 20
111.8
 40
0.8
 50
270.0
 51
0.0
  0
ARC
  8
0
  6
CONTINUOUS
 62
     7
 10
171.7368
 20
111.8
 40
0.8
 50
180.0
 51
270.0
  0
ARC
  8
0
  6
CONTINUOUS
 62
     7
 10
178.9368
 20
116.5
 40
3.5
 50
270.0
 51
89.99999
  0
ARC
  8
0
  6
CONTINUOUS
 62
     7
 10
176.9368
 20
116.5
 40
3.5
 50
89.99999
 51
270.0
  0
CIRCLE
  8
0
  6
CONTINUOUS
 62
     7
 10
176.4368
 20
116.5
 40
0.85
  0
CIRCLE
  8
0
  6
CONTINUOUS
 62
     7
 10
179.4368
 20
116.5
 40
0.85
  0
ARC
  8
0
  6
CONTINUOUS
 62
     7
 10
22.9368
 20
-30.00005
 40
0.5
 50
180.0
 51
270.0
  0
ARC
  8
0
  6
CONTINUOUS
 62
     7
 10
45.9368
 20
-30.00005
 40
0.5
 50
270.0
 51
0.0
  0
ARC
  8
0
  6
CONTINUOUS
 62
     7
 10
40.73682
 20
-26.00005
 40
0.5
 50
89.99999
 51
180.0
  0
ARC
  8
0
  6
CONTINUOUS
 62
     7
 10
39.73682
 20
-30.00005
 40
0.5
 50
270.0
 51
0.0
  0
ARC
  8
0
  6
CONTINUOUS
 62
     7
 10
45.9368
 20
-25.00005
 40
0.5
 50
270.0
 51
0.0
  0
ARC
  8
0
  6
CONTINUOUS
 62
     7
 10
43.4368
 20
-22.90004
 40
5.0
 50
240.5076
 51
299.4923
  0
ARC
  8
0
  6
CONTINUOUS
 62
     7
 10
41.30347
 20
-26.67186
 40
0.66667
 50
180.0
 51
240.5076
  0
ARC
  8
0
  6
CONTINUOUS
 62
     7
 10
45.57013
 20
-26.67186
 40
0.66667
 50
299.4924
 51
0.0
  0
ARC
  8
0
  6
CONTINUOUS
 62
     7
 10
55.63681
 20
22.79996
 40
0.8
 50
270.0
 51
0.0
  0
ARC
  8
0
  6
CONTINUOUS
 62
     7
 10
43.4368
 20
44.49995
 40
6.0
 50
73.80869
 51
106.1913
  0
ARC
  8
0
  6
CONTINUOUS
 62
     7
 10
44.88681
 20
49.4937
 40
0.8
 50
0.0
 51
73.80872
  0
ARC
  8
0
  6
CONTINUOUS
 62
     7
 10
41.98679
 20
49.4937
 40
0.8
 50
106.1913
 51
180.0
  0
ARC
  8
0
  6
CONTINUOUS
 62
     7
 10
25.4368
 20
44.49995
 40
6.0
 50
73.80865
 51
106.1913
  0
ARC
  8
0
  6
CONTINUOUS
 62
     7
 10
23.98679
 20
49.4937
 40
0.8
 50
106.1914
 51
118.0138
  0
ARC
  8
0
  6
CONTINUOUS
 62
     7
 10
26.88681
 20
49.4937
 40
0.8
 50
61.98621
 51
73.80872
  0
ARC
  8
0
  6
CONTINUOUS
 62
     7
 10
55.63681
 20
45.69997
 40
0.8
 50
0.0
 51
89.99999
  0
ARC
  8
0
  6
CONTINUOUS
 62
     7
 10
47.9368
 20
47.49995
 40
0.5
 50
89.99999
 51
180.0
  0
ARC
  8
0
  6
CONTINUOUS
 62
     7
 10
53.9368
 20
47.49995
 40
0.5
 50
0.0
 51
89.99999
  0
TEXT
  8
0
  6
CONTINUOUS
 62
     7
 10
-350.9787
 20
200.5946
 40
8.5
  1
MODEL : 110E1-L
 41
0.8
  7
STANDARD
  0
TEXT
  8
0
  6
CONTINUOUS
 62
     7
 10
229.0661
 20
236.2625
 40
8.5
  1
DATE : NOV ,1989
 41
0.8
  7
STANDARD
  0
TEXT
  8
0
  6
CONTINUOUS
 62
     7
 10
-366.0886
 20
235.5575
 40
10.0
  1
110 CONNECTOR -L
 41
0.73013
  7
STANDARD
  0
TEXT
  8
0
  6
CONTINUOUS
 62
     7
 10
19.88928
 20
200.5946
 40
8.5
  1
MODEL : A110E1-L
 41
0.8
  7
STANDARD
  0
TEXT
  8
0
  6
CONTINUOUS
 62
     7
 10
-185.494
 20
-9.48277
 40
2.0
  1
A
 41
0.8
  7
STANDARD
  0
ENDSEC
  0
EOF
