  0
SECTION
  2
HEADER
  9
$ACADVER
  1
AC1002
  9
$INSBASE
 10
0.0
 20
0.0
  9
$EXTMIN
 10
-370.8736
 20
-254.5585
  9
$EXTMAX
 10
370.8736
 20
254.5585
  9
$LIMMIN
 10
0.0
 20
0.0
  9
$LIMMAX
 10
12.0
 20
9.0
  9
$VIEWCTR
 10
28.6093211
 20
0.0
  9
$VIEWSIZE
 40
509.117
  9
$SNAPMODE
 70
     0
  9
$SNAPUNIT
 10
1.0
 20
1.0
  9
$SNAPBASE
 10
0.0
 20
0.0
  9
$SNAPANG
 50
0.0
  9
$SNAPSTYLE
 70
     0
  9
$SNAPISOPAIR
 70
     0
  9
$GRIDMODE
 70
     0
  9
$GRIDUNIT
 10
0.0
 20
0.0
  9
$ORTHOMODE
 70
     0
  9
$REGENMODE
 70
     1
  9
$FILLMODE
 70
     1
  9
$QTEXTMODE
 70
     0
  9
$DRAGMODE
 70
     2
  9
$LTSCALE
 40
1.0
  9
$OSMODE
 70
     0
  9
$ATTMODE
 70
     1
  9
$TEXTSIZE
 40
0.2
  9
$TRACEWID
 40
0.05
  9
$TEXTSTYLE
  7
AAA
  9
$CLAYER
  8
0
  9
$CELTYPE
  6
BYLAYER
  9
$CECOLOR
 62
   256
  9
$DIMSCALE
 40
1.0
  9
$DIMASZ
 40
0.18
  9
$DIMEXO
 40
0.0625
  9
$DIMDLI
 40
0.38
  9
$DIMRND
 40
0.0
  9
$DIMDLE
 40
0.0
  9
$DIMEXE
 40
0.18
  9
$DIMTP
 40
0.0
  9
$DIMTM
 40
0.0
  9
$DIMTXT
 40
0.18
  9
$DIMCEN
 40
0.09
  9
$DIMTSZ
 40
0.0
  9
$DIMTOL
 70
     0
  9
$DIMLIM
 70
     0
  9
$DIMTIH
 70
     1
  9
$DIMTOH
 70
     1
  9
$DIMSE1
 70
     0
  9
$DIMSE2
 70
     0
  9
$DIMTAD
 70
     0
  9
$DIMZIN
 70
     0
  9
$DIMBLK
  1

  9
$LUNITS
 70
     2
  9
$LUPREC
 70
     4
  9
$AXISMODE
 70
     0
  9
$AXISUNIT
 10
0.0
 20
0.0
  9
$SKETCHINC
 40
0.1
  9
$FILLETRAD
 40
0.0
  9
$AUNITS
 70
     0
  9
$AUPREC
 70
     0
  9
$MENU
  1
ACAD
  9
$ELEVATION
 40
0.0
  9
$THICKNESS
 40
0.0
  9
$VIEWDIR
 10
0.0
 20
0.0
 30
1.0
  9
$LIMCHECK
 70
     0
  9
$BLIPMODE
 70
     1
  9
$CHAMFERA
 40
0.0
  9
$CHAMFERB
 40
0.0
  9
$FASTZOOM
 70
     1
  9
$SKPOLY
 70
     0
  9
$TDCREATE
 40
2447872.6336574569
  9
$TDUPDATE
 40
2447872.6336574569
  9
$TDINDWG
 40
0.0045833333
  9
$TDUSRTIMER
 40
0.0045833333
  9
$USRTIMER
 70
     1
  9
$ANGBASE
 50
0.0
  9
$ANGDIR
 70
     0
  9
$PDMODE
 70
     0
  9
$PDSIZE
 40
0.0
  9
$PLINEWID
 40
0.0
  9
$COORDS
 70
     0
  9
$USERI1
 70
     0
  9
$USERI2
 70
     0
  9
$USERI3
 70
     0
  9
$USERI4
 70
     0
  9
$USERI5
 70
     0
  9
$USERR1
 40
0.0
  9
$USERR2
 40
0.0
  9
$USERR3
 40
0.0
  9
$USERR4
 40
0.0
  9
$USERR5
 40
0.0
  0
ENDSEC
  0
SECTION
  2
TABLES
  0
TABLE
  2
LTYPE
 70
     3
  0
LTYPE
  2
CONTINUOUS
 70
    64
  3
SOLID
 72
    65
 73
     0
 40
0.0
  0
LTYPE
  2
CENTER
 70
    64
  3
CENTER
 72
    65
 73
     4
 40
2.0
 49
1.25
 49
-0.25
 49
0.25
 49
-0.25
  0
LTYPE
  2
PHANTOM
 70
    64
  3
PHANTOM
 72
    65
 73
     6
 40
2.5
 49
1.25
 49
-0.25
 49
0.25
 49
-0.25
 49
0.25
 49
-0.25
  0
ENDTAB
  0
TABLE
  2
LAYER
 70
     1
  0
LAYER
  2
0
 70
    64
 62
     7
  6
CONTINUOUS
  0
ENDTAB
  0
TABLE
  2
STYLE
 70
     2
  0
STYLE
  2
AAA
 70
     0
 40
0.0
 41
1.0
 50
0.0
 71
     0
 42
0.2
  3
TXT
  4

  0
STYLE
  2
STANDARD
 70
    64
 40
0.0
 41
1.0
 50
0.0
 71
     0
 42
0.2
  3
TXT
  4
BIGFONT
  0
ENDTAB
  0
TABLE
  2
VIEW
 70
     0
  0
ENDTAB
  0
ENDSEC
  0
SECTION
  2
BLOCKS
  0
ENDSEC
  0
SECTION
  2
ENTITIES
  0
POINT
  8
0
  6
CONTINUOUS
 62
     7
 10
-206.4367
 20
140.0
  0
POINT
  8
0
  6
CONTINUOUS
 62
     7
 10
-182.4367
 20
140.0
  0
POINT
  8
0
  6
CONTINUOUS
 62
     7
 10
-185.4368
 20
141.0
  0
POINT
  8
0
  6
CONTINUOUS
 62
     7
 10
-206.4368
 20
0.0
  0
POINT
  8
0
  6
CONTINUOUS
 62
     7
 10
-182.4368
 20
0.0
  0
POINT
  8
0
  6
CONTINUOUS
 62
     7
 10
-185.4368
 20
-30.5
  0
POINT
  8
0
  6
CONTINUOUS
 62
     7
 10
-182.4368
 20
18.5
  0
POINT
  8
0
  6
CONTINUOUS
 62
     7
 10
-56.43677
 20
0.0
  0
POINT
  8
0
  6
CONTINUOUS
 62
     7
 10
-43.43677
 20
0.0
  0
POINT
  8
0
  6
CONTINUOUS
 62
     7
 10
-55.43677
 20
-30.5
  0
POINT
  8
0
  6
CONTINUOUS
 62
     7
 10
-47.93677
 20
-4.0
  0
POINT
  8
0
  6
CONTINUOUS
 62
     7
 10
-53.93677
 20
-14.0
  0
POINT
  8
0
  6
CONTINUOUS
 62
     7
 10
-50.93677
 20
18.5
  0
POINT
  8
0
  6
CONTINUOUS
 62
     7
 10
-302.4368
 20
-30.5
  0
POINT
  8
0
  6
CONTINUOUS
 62
     7
 10
-309.9368
 20
1.0
  0
POINT
  8
0
  6
CONTINUOUS
 62
     7
 10
-306.9368
 20
-9.0
  0
POINT
  8
0
  6
CONTINUOUS
 62
     7
 10
-303.9368
 20
-19.0
  0
POINT
  8
0
  6
CONTINUOUS
 62
     7
 10
-301.4368
 20
0.0
  0
POINT
  8
0
  6
CONTINUOUS
 62
     7
 10
-206.4368
 20
-130.0
  0
POINT
  8
0
  6
CONTINUOUS
 62
     7
 10
-182.4368
 20
-130.0
  0
POINT
  8
0
  6
CONTINUOUS
 62
     7
 10
-185.4368
 20
-131.0
  0
POINT
  8
0
  6
CONTINUOUS
 62
     7
 10
-182.4368
 20
-135.5
  0
POINT
  8
0
  6
CONTINUOUS
 62
     7
 10
172.4368
 20
157.5
  0
POINT
  8
0
  6
CONTINUOUS
 62
     7
 10
185.4368
 20
157.5
  0
POINT
  8
0
  6
CONTINUOUS
 62
     7
 10
172.4368
 20
0.0
  0
POINT
  8
0
  6
CONTINUOUS
 62
     7
 10
185.4368
 20
0.0
  0
POINT
  8
0
  6
CONTINUOUS
 62
     7
 10
177.9368
 20
18.5
  0
POINT
  8
0
  6
CONTINUOUS
 62
     7
 10
332.4367
 20
0.0
  0
POINT
  8
0
  6
CONTINUOUS
 62
     7
 10
308.4367
 20
18.5
  0
POINT
  8
0
  6
CONTINUOUS
 62
     7
 10
46.4368
 20
0.0
  0
POINT
  8
0
  6
CONTINUOUS
 62
     7
 10
22.4368
 20
0.0
  0
POINT
  8
0
  6
CONTINUOUS
 62
     7
 10
46.4368
 20
18.5
  0
POINT
  8
0
  6
CONTINUOUS
 62
     7
 10
172.4368
 20
-147.5
  0
POINT
  8
0
  6
CONTINUOUS
 62
     7
 10
185.4368
 20
-147.5
  0
POINT
  8
0
  6
CONTINUOUS
 62
     7
 10
177.9368
 20
-123.5
  0
LINE
  8
0
  6
CONTINUOUS
 62
     7
 10
218.3292
 20
-225.9564
 11
370.8736
 21
-225.9564
  0
LINE
  8
0
  6
CONTINUOUS
 62
     7
 10
-218.3292
 20
225.9564
 11
-218.3292
 21
254.5585
  0
LINE
  8
0
  6
CONTINUOUS
 62
     7
 10
-370.8736
 20
225.9564
 11
-218.3292
 21
225.9564
  0
LINE
  8
0
  6
CONTINUOUS
 62
     7
 10
-370.8736
 20
254.5585
 11
370.8736
 21
254.5585
  0
LINE
  8
0
  6
CONTINUOUS
 62
     7
 10
-370.8736
 20
-254.5585
 11
370.8736
 21
-254.5585
  0
LINE
  8
0
  6
CONTINUOUS
 62
     7
 10
370.8736
 20
254.5585
 11
370.8736
 21
-254.5585
  0
LINE
  8
0
  6
CONTINUOUS
 62
     7
 10
-370.8736
 20
-254.5585
 11
-370.8736
 21
254.5585
  0
LINE
  8
0
  6
CONTINUOUS
 62
     7
 10
218.3292
 20
-225.9564
 11
218.3292
 21
-254.5585
  0
LINE
  8
0
  6
CONTINUOUS
 62
     7
 10
218.3292
 20
254.5585
 11
218.3292
 21
225.9564
  0
LINE
  8
0
  6
CONTINUOUS
 62
     7
 10
218.3292
 20
225.9564
 11
370.8736
 21
225.9564
  0
LINE
  8
0
  6
CONTINUOUS
 62
     7
 10
258.3816
 20
-232.8337
 11
258.3816
 21
-236.1516
  0
LINE
  8
0
  6
CONTINUOUS
 62
     7
 10
258.3816
 20
-236.1516
 11
270.8235
 21
-236.1516
  0
LINE
  8
0
  6
CONTINUOUS
 62
     7
 10
258.3816
 20
-249.1465
 11
275.2473
 21
-249.1465
  0
LINE
  8
0
  6
CONTINUOUS
 62
     7
 10
258.3816
 20
-245.8286
 11
270.8235
 21
-245.8286
  0
LINE
  8
0
  6
CONTINUOUS
 62
     7
 10
258.3816
 20
-232.8337
 11
273.0354
 21
-232.8337
  0
LINE
  8
0
  6
CONTINUOUS
 62
     7
 10
270.8235
 20
-236.1516
 11
270.8235
 21
-245.8286
  0
LINE
  8
0
  6
CONTINUOUS
 62
     7
 10
275.2473
 20
-235.0457
 11
275.2473
 21
-249.1465
  0
LINE
  8
0
  6
CONTINUOUS
 62
     7
 10
258.3816
 20
-245.8286
 11
258.3816
 21
-249.1465
  0
LINE
  8
0
  6
CONTINUOUS
 62
     7
 10
293.4954
 20
-236.1516
 11
293.4954
 21
-246.9346
  0
LINE
  8
0
  6
CONTINUOUS
 62
     7
 10
277.7357
 20
-232.8337
 11
277.7357
 21
-236.1516
  0
LINE
  8
0
  6
CONTINUOUS
 62
     7
 10
293.9378
 20
-232.585
 11
295.5138
 21
-232.585
  0
LINE
  8
0
  6
CONTINUOUS
 62
     7
 10
293.9378
 20
-230.373
 11
295.5138
 21
-230.373
  0
LINE
  8
0
  6
CONTINUOUS
 62
     7
 10
295.5138
 20
-230.373
 11
295.5138
 21
-232.585
  0
LINE
  8
0
  6
CONTINUOUS
 62
     7
 10
293.9378
 20
-230.373
 11
293.9378
 21
-232.585
  0
LINE
  8
0
  6
CONTINUOUS
 62
     7
 10
293.1083
 20
-230.373
 11
293.1083
 21
-232.585
  0
LINE
  8
0
  6
CONTINUOUS
 62
     7
 10
282.7661
 20
-230.373
 11
286.2009
 21
-230.373
  0
LINE
  8
0
  6
CONTINUOUS
 62
     7
 10
285.5413
 20
-232.8335
 11
286.2006
 21
-230.3727
  0
LINE
  8
0
  6
CONTINUOUS
 62
     7
 10
282.1067
 20
-232.8337
 11
282.766
 21
-230.373
  0
LINE
  8
0
  6
CONTINUOUS
 62
     7
 10
285.5416
 20
-232.8337
 11
290.1776
 21
-232.8337
  0
LINE
  8
0
  6
CONTINUOUS
 62
     7
 10
284.6526
 20
-236.1516
 11
289.0716
 21
-236.1516
  0
LINE
  8
0
  6
CONTINUOUS
 62
     7
 10
286.6429
 20
-249.1465
 11
291.2836
 21
-249.1465
  0
LINE
  8
0
  6
CONTINUOUS
 62
     7
 10
285.7537
 20
-245.8286
 11
286.6427
 21
-249.1463
  0
LINE
  8
0
  6
CONTINUOUS
 62
     7
 10
285.7538
 20
-245.8286
 11
289.0716
 21
-245.8286
  0
LINE
  8
0
  6
CONTINUOUS
 62
     7
 10
281.1707
 20
-249.1466
 11
284.6527
 21
-236.1517
  0
LINE
  8
0
  6
CONTINUOUS
 62
     7
 10
277.7357
 20
-236.1516
 11
281.2177
 21
-236.1516
  0
LINE
  8
0
  6
CONTINUOUS
 62
     7
 10
277.7354
 20
-249.1462
 11
281.2175
 21
-236.1513
  0
LINE
  8
0
  6
CONTINUOUS
 62
     7
 10
277.7357
 20
-249.1465
 11
281.1706
 21
-249.1465
  0
LINE
  8
0
  6
CONTINUOUS
 62
     7
 10
277.7357
 20
-232.8337
 11
282.1067
 21
-232.8337
  0
LINE
  8
0
  6
CONTINUOUS
 62
     7
 10
289.0716
 20
-236.1516
 11
289.0716
 21
-245.8286
  0
LINE
  8
0
  6
CONTINUOUS
 62
     7
 10
291.5323
 20
-230.373
 11
293.1083
 21
-230.373
  0
LINE
  8
0
  6
CONTINUOUS
 62
     7
 10
291.5323
 20
-232.585
 11
293.1083
 21
-232.585
  0
LINE
  8
0
  6
CONTINUOUS
 62
     7
 10
291.5323
 20
-230.373
 11
291.5323
 21
-232.585
  0
LINE
  8
0
  6
CONTINUOUS
 62
     7
 10
301.5135
 20
-230.373
 11
305.9373
 21
-230.373
  0
LINE
  8
0
  6
CONTINUOUS
 62
     7
 10
308.3423
 20
-240.1951
 11
311.2962
 21
-238.8176
  0
LINE
  8
0
  6
CONTINUOUS
 62
     7
 10
305.9373
 20
-242.7344
 11
305.9373
 21
-249.1465
  0
LINE
  8
0
  6
CONTINUOUS
 62
     7
 10
301.5135
 20
-243.379
 11
301.5135
 21
-249.1465
  0
LINE
  8
0
  6
CONTINUOUS
 62
     7
 10
305.9373
 20
-232.8337
 11
310.3611
 21
-232.8337
  0
LINE
  8
0
  6
CONTINUOUS
 62
     7
 10
305.9373
 20
-230.373
 11
305.9373
 21
-232.8337
  0
LINE
  8
0
  6
CONTINUOUS
 62
     7
 10
301.5135
 20
-230.373
 11
301.5135
 21
-232.8337
  0
LINE
  8
0
  6
CONTINUOUS
 62
     7
 10
312.573
 20
-235.0457
 11
312.573
 21
-236.8128
  0
LINE
  8
0
  6
CONTINUOUS
 62
     7
 10
308.3424
 20
-240.195
 11
312.5734
 21
-242.168
  0
LINE
  8
0
  6
CONTINUOUS
 62
     7
 10
305.9373
 20
-242.7343
 11
312.5731
 21
-245.8286
  0
LINE
  8
0
  6
CONTINUOUS
 62
     7
 10
296.2603
 20
-242.1678
 11
296.2603
 21
-245.8286
  0
LINE
  8
0
  6
CONTINUOUS
 62
     7
 10
296.2607
 20
-242.1682
 11
309.1626
 21
-236.1519
  0
LINE
  8
0
  6
CONTINUOUS
 62
     7
 10
296.2603
 20
-245.8286
 11
301.5136
 21
-243.3789
  0
LINE
  8
0
  6
CONTINUOUS
 62
     7
 10
312.573
 20
-242.1678
 11
312.573
 21
-245.8286
  0
LINE
  8
0
  6
CONTINUOUS
 62
     7
 10
296.2603
 20
-232.8337
 11
296.2603
 21
-236.1516
  0
LINE
  8
0
  6
CONTINUOUS
 62
     7
 10
301.5135
 20
-249.1465
 11
305.9373
 21
-249.1465
  0
LINE
  8
0
  6
CONTINUOUS
 62
     7
 10
296.2603
 20
-236.1516
 11
309.1621
 21
-236.1516
  0
LINE
  8
0
  6
CONTINUOUS
 62
     7
 10
296.2603
 20
-232.8337
 11
301.5135
 21
-232.8337
  0
LINE
  8
0
  6
CONTINUOUS
 62
     7
 10
327.504
 20
-236.4047
 11
328.73
 21
-235.9171
  0
LINE
  8
0
  6
CONTINUOUS
 62
     7
 10
327.5034
 20
-236.4044
 11
327.5034
 21
-249.1465
  0
LINE
  8
0
  6
CONTINUOUS
 62
     7
 10
323.0795
 20
-249.1465
 11
327.5034
 21
-249.1465
  0
LINE
  8
0
  6
CONTINUOUS
 62
     7
 10
313.9553
 20
-241.7925
 11
323.0794
 21
-238.1637
  0
LINE
  8
0
  6
CONTINUOUS
 62
     7
 10
313.9555
 20
-238.222
 11
326.8062
 21
-233.1111
  0
LINE
  8
0
  6
CONTINUOUS
 62
     7
 10
323.0795
 20
-238.1638
 11
323.0795
 21
-249.1465
  0
LINE
  8
0
  6
CONTINUOUS
 62
     7
 10
327.5034
 20
-231.3684
 11
327.5034
 21
-232.0834
  0
LINE
  8
0
  6
CONTINUOUS
 62
     7
 10
330.8211
 20
-231.3684
 11
330.8211
 21
-232.8338
  0
LINE
  8
0
  6
CONTINUOUS
 62
     7
 10
313.9554
 20
-238.2219
 11
313.9554
 21
-241.7925
  0
LINE
  8
0
  6
CONTINUOUS
 62
     7
 10
327.5034
 20
-231.3684
 11
330.8211
 21
-231.3684
  0
LINE
  8
0
  6
CONTINUOUS
 62
     7
 10
0.0
 20
254.5585
 11
0.0
 21
-254.5585
  0
LINE
  8
0
  6
CONTINUOUS
 62
     7
 10
-206.4368
 20
22.0
 11
-206.4368
 21
-30.0
  0
LINE
  8
0
  6
CONTINUOUS
 62
     7
 10
-206.4368
 20
5.0
 11
-182.4368
 21
5.0
  0
LINE
  8
0
  6
CONTINUOUS
 62
     7
 10
-206.4368
 20
-23.0
 11
-182.4368
 21
-23.0
  0
LINE
  8
0
  6
CONTINUOUS
 62
     7
 10
-205.9368
 20
-30.5
 11
-188.1868
 21
-30.5
  0
LINE
  8
0
  6
CENTER
 62
     2
 10
-194.4368
 20
55.89185
 11
-194.4368
 21
-34.53333
  0
LINE
  8
0
  6
CENTER
 62
     2
 10
-201.4368
 20
0.0
 11
-201.4368
 21
-17.33333
  0
LINE
  8
0
  6
CENTER
 62
     2
 10
-204.6034
 20
-14.0
 11
-197.9368
 21
-14.0
  0
LINE
  8
0
  6
CENTER
 62
     2
 10
-204.9368
 20
-4.0
 11
-198.2701
 21
-4.0
  0
LINE
  8
0
  6
CENTER
 62
     2
 10
-185.4368
 20
-24.54131
 11
-185.4368
 21
-31.4705
  0
LINE
  8
0
  6
CONTINUOUS
 62
     7
 10
-188.6368
 20
-26.0
 11
-188.6368
 21
-30.0
  0
LINE
  8
0
  6
CONTINUOUS
 62
     7
 10
-188.1868
 20
-25.5
 11
-182.6868
 21
-25.5
  0
LINE
  8
0
  6
CONTINUOUS
 62
     7
 10
-188.1868
 20
-25.5
 11
-188.1868
 21
-30.7
  0
LINE
  8
0
  6
CONTINUOUS
 62
     7
 10
-182.6868
 20
-25.5
 11
-182.6868
 21
-30.7
  0
LINE
  8
0
  6
CONTINUOUS
 62
     7
 10
-188.1868
 20
-30.7
 11
-182.6868
 21
-30.7
  0
LINE
  8
0
  6
CENTER
 62
     2
 10
-186.4795
 20
0.0
 11
-181.4473
 21
0.0
  0
LINE
  8
0
  6
CONTINUOUS
 62
     7
 10
-182.4368
 20
22.0
 11
-182.4368
 21
-30.0
  0
LINE
  8
0
  6
CONTINUOUS
 62
     7
 10
-185.4368
 20
1.81384
 11
-182.4368
 21
1.81384
  0
LINE
  8
0
  6
CONTINUOUS
 62
     7
 10
-185.4368
 20
-1.81384
 11
-182.4368
 21
-1.81384
  0
LINE
  8
0
  6
CONTINUOUS
 62
     7
 10
-185.4368
 20
1.81384
 11
-185.4368
 21
-1.81384
  0
LINE
  8
0
  6
CONTINUOUS
 62
     7
 10
-183.9633
 20
-29.7
 11
-183.9633
 21
-30.7
  0
LINE
  8
0
  6
CONTINUOUS
 62
     7
 10
-183.1148
 20
-29.7
 11
-183.1148
 21
-30.7
  0
LINE
  8
0
  6
CONTINUOUS
 62
     7
 10
-183.9633
 20
-29.7
 11
-183.1148
 21
-29.7
  0
LINE
  8
0
  6
CONTINUOUS
 62
     7
 10
-206.4368
 20
47.20001
 11
-181.4368
 21
47.20001
  0
LINE
  8
0
  6
CONTINUOUS
 62
     7
 10
-206.4368
 20
22.0
 11
-162.9368
 21
22.0
  0
LINE
  8
0
  6
CONTINUOUS
 62
     7
 10
-206.4368
 20
52.70001
 11
-206.4368
 21
22.0
  0
LINE
  8
0
  6
CONTINUOUS
 62
     7
 10
-182.4368
 20
47.20001
 11
-182.4368
 21
22.0
  0
LINE
  8
0
  6
CONTINUOUS
 62
     7
 10
-188.1368
 20
48.20001
 11
-182.7368
 21
48.20001
  0
LINE
  8
0
  6
CENTER
 62
     2
 10
-185.4368
 20
55.70001
 11
-185.4368
 21
44.20001
  0
LINE
  8
0
  6
CONTINUOUS
 62
     7
 10
-182.8868
 20
48.79999
 11
-187.9868
 21
48.79999
  0
LINE
  8
0
  6
CONTINUOUS
 62
     7
 10
-185.7368
 20
48.20002
 11
-185.8975
 21
48.80002
  0
LINE
  8
0
  6
CONTINUOUS
 62
     7
 10
-185.1366
 20
48.80005
 11
-184.9759
 21
48.20006
  0
LINE
  8
0
  6
CONTINUOUS
 62
     7
 10
-182.8868
 20
48.79999
 11
-182.8868
 21
48.20001
  0
LINE
  8
0
  6
CONTINUOUS
 62
     7
 10
-187.9868
 20
48.80002
 11
-187.9868
 21
48.20001
  0
LINE
  8
0
  6
CONTINUOUS
 62
     7
 10
-183.1868
 20
49.49374
 11
-183.1868
 21
48.79999
  0
LINE
  8
0
  6
CONTINUOUS
 62
     7
 10
-187.6868
 20
49.49374
 11
-187.6868
 21
48.79999
  0
LINE
  8
0
  6
CENTER
 62
     2
 10
-203.4368
 20
55.70001
 11
-203.4368
 21
44.20001
  0
LINE
  8
0
  6
CONTINUOUS
 62
     7
 10
-162.4368
 20
52.0
 11
-162.4368
 21
22.5
  0
LINE
  8
0
  6
CONTINUOUS
 62
     7
 10
-182.4368
 20
47.0
 11
-181.4368
 21
47.0
  0
LINE
  8
0
  6
CONTINUOUS
 62
     7
 10
-181.4368
 20
47.0
 11
-181.4368
 21
52.5
  0
LINE
  8
0
  6
CONTINUOUS
 62
     7
 10
-206.4368
 20
52.70001
 11
-181.4368
 21
52.70001
  0
LINE
  8
0
  6
CONTINUOUS
 62
     7
 10
-188.1368
 20
52.70001
 11
-188.1368
 21
48.20001
  0
LINE
  8
0
  6
CONTINUOUS
 62
     7
 10
-182.7368
 20
52.70001
 11
-182.7368
 21
48.20001
  0
LINE
  8
0
  6
CENTER
 62
     2
 10
-179.4368
 20
77.5
 11
-179.4368
 21
49.5
  0
LINE
  8
0
  6
CONTINUOUS
 62
     7
 10
-178.5868
 20
64.5
 11
-178.5868
 21
60.04871
  0
LINE
  8
0
  6
CONTINUOUS
 62
     7
 10
-180.2868
 20
64.5
 11
-180.2868
 21
60.50421
  0
LINE
  8
0
  6
CONTINUOUS
 62
     7
 10
-179.7568
 20
74.5
 11
-179.7568
 21
64.5
  0
LINE
  8
0
  6
CONTINUOUS
 62
     7
 10
-179.1168
 20
74.5
 11
-179.1168
 21
64.5
  0
LINE
  8
0
  6
CONTINUOUS
 62
     7
 10
-180.2868
 20
64.5
 11
-178.5868
 21
64.5
  0
LINE
  8
0
  6
CONTINUOUS
 62
     7
 10
-179.7568
 20
74.5
 11
-179.1168
 21
74.5
  0
LINE
  8
0
  6
PHANTOM
 62
     2
 10
-182.2868
 20
59.48713
 11
-176.5868
 21
57.95983
  0
LINE
  8
0
  6
PHANTOM
 62
     2
 10
-182.2867
 20
61.04003
 11
-176.5867
 21
59.51273
  0
LINE
  8
0
  6
CONTINUOUS
 62
     7
 10
-180.2868
 20
58.95129
 11
-180.2868
 21
54.5
  0
LINE
  8
0
  6
CONTINUOUS
 62
     7
 10
-178.5868
 20
58.49579
 11
-178.5868
 21
54.5
  0
LINE
  8
0
  6
CONTINUOUS
 62
     7
 10
-176.4368
 20
52.5
 11
-162.9368
 21
52.5
  0
LINE
  8
0
  6
CONTINUOUS
 62
     7
 10
-181.4368
 20
52.5
 11
-181.4368
 21
54.5
  0
LINE
  8
0
  6
CONTINUOUS
 62
     7
 10
-181.4368
 20
52.5
 11
-176.4368
 21
52.5
  0
LINE
  8
0
  6
CONTINUOUS
 62
     7
 10
-176.4368
 20
52.5
 11
-176.4368
 21
54.0
  0
LINE
  8
0
  6
CONTINUOUS
 62
     7
 10
-181.4368
 20
54.5
 11
-176.9368
 21
54.5
  0
LINE
  8
0
  6
CENTER
 62
     2
 10
-160.289
 20
145.5
 11
-208.4367
 21
145.5
  0
LINE
  8
0
  6
CENTER
 62
     2
 10
-194.4368
 20
135.5516
 11
-194.4368
 21
155.4878
  0
LINE
  8
0
  6
CONTINUOUS
 62
     7
 10
-185.1368
 20
138.7701
 11
-185.1368
 21
138.4677
  0
LINE
  8
0
  6
CONTINUOUS
 62
     7
 10
-185.7368
 20
138.7701
 11
-185.7368
 21
138.4677
  0
LINE
  8
0
  6
CONTINUOUS
 62
     7
 10
-185.8976
 20
138.492
 11
-185.8976
 21
138.7977
  0
LINE
  8
0
  6
CONTINUOUS
 62
     7
 10
-203.7368
 20
152.2299
 11
-203.7368
 21
152.5323
  0
LINE
  8
0
  6
CONTINUOUS
 62
     7
 10
-203.1368
 20
152.2299
 11
-203.1368
 21
152.5323
  0
LINE
  8
0
  6
CONTINUOUS
 62
     7
 10
-202.976
 20
152.508
 11
-202.976
 21
152.2023
  0
LINE
  8
0
  6
CONTINUOUS
 62
     7
 10
-186.5398
 20
140.2646
 11
-186.1721
 21
140.6323
  0
LINE
  8
0
  6
CONTINUOUS
 62
     7
 10
-186.1722
 20
139.897
 11
-185.8045
 21
140.2647
  0
LINE
  8
0
  6
CONTINUOUS
 62
     7
 10
-186.5399
 20
140.2646
 11
-186.1722
 21
139.8969
  0
LINE
  8
0
  6
CONTINUOUS
 62
     7
 10
-184.7014
 20
142.1031
 11
-184.3337
 21
141.7354
  0
LINE
  8
0
  6
CONTINUOUS
 62
     7
 10
-187.2009
 20
142.3965
 11
-186.1721
 21
141.3677
  0
LINE
  8
0
  6
CONTINUOUS
 62
     7
 10
-186.8332
 20
142.7642
 11
-185.8044
 21
141.7354
  0
LINE
  8
0
  6
CONTINUOUS
 62
     7
 10
-185.0691
 20
141.7354
 11
-184.7014
 21
142.1031
  0
LINE
  8
0
  6
CONTINUOUS
 62
     7
 10
-184.7014
 20
141.3677
 11
-184.3337
 21
141.7355
  0
LINE
  8
0
  6
CONTINUOUS
 62
     7
 10
-185.0691
 20
140.2647
 11
-184.0403
 21
139.2359
  0
LINE
  8
0
  6
CONTINUOUS
 62
     7
 10
-184.7014
 20
140.6324
 11
-183.6726
 21
139.6036
  0
LINE
  8
0
  6
CONTINUOUS
 62
     7
 10
-204.5399
 20
149.2646
 11
-204.1722
 21
149.6323
  0
LINE
  8
0
  6
CONTINUOUS
 62
     7
 10
-204.1722
 20
148.897
 11
-203.8045
 21
149.2647
  0
LINE
  8
0
  6
CONTINUOUS
 62
     7
 10
-204.5399
 20
149.2646
 11
-204.1722
 21
148.8969
  0
LINE
  8
0
  6
CONTINUOUS
 62
     7
 10
-202.7014
 20
151.1031
 11
-202.3337
 21
150.7354
  0
LINE
  8
0
  6
CONTINUOUS
 62
     7
 10
-205.201
 20
151.3965
 11
-204.1722
 21
150.3677
  0
LINE
  8
0
  6
CONTINUOUS
 62
     7
 10
-204.8333
 20
151.7642
 11
-203.8045
 21
150.7354
  0
LINE
  8
0
  6
CONTINUOUS
 62
     7
 10
-203.0691
 20
150.7354
 11
-202.7014
 21
151.1031
  0
LINE
  8
0
  6
CONTINUOUS
 62
     7
 10
-202.7014
 20
150.3678
 11
-202.3337
 21
150.7355
  0
LINE
  8
0
  6
CONTINUOUS
 62
     7
 10
-203.0691
 20
149.2646
 11
-202.0403
 21
148.2358
  0
LINE
  8
0
  6
CONTINUOUS
 62
     7
 10
-202.7014
 20
149.6323
 11
-201.6726
 21
148.6035
  0
LINE
  8
0
  6
CENTER
 62
     2
 10
-185.4368
 20
145.0
 11
-185.4368
 21
137.0
  0
LINE
  8
0
  6
CENTER
 62
     2
 10
-203.4368
 20
154.0
 11
-203.4368
 21
146.0
  0
LINE
  8
0
  6
CENTER
 62
     2
 10
-207.4368
 20
150.0
 11
-199.4368
 21
150.0
  0
LINE
  8
0
  6
CENTER
 62
     2
 10
-189.4368
 20
141.0
 11
-181.4368
 21
141.0
  0
LINE
  8
0
  6
CONTINUOUS
 62
     7
 10
-205.9368
 20
153.0
 11
-162.9368
 21
153.0
  0
LINE
  8
0
  6
CONTINUOUS
 62
     7
 10
-206.4368
 20
152.5
 11
-206.4368
 21
138.5
  0
LINE
  8
0
  6
CONTINUOUS
 62
     7
 10
-205.9368
 20
138.0
 11
-162.9368
 21
138.0
  0
LINE
  8
0
  6
CONTINUOUS
 62
     7
 10
-162.4368
 20
152.5
 11
-162.4368
 21
138.5
  0
LINE
  8
0
  6
CONTINUOUS
 62
     7
 10
-181.4368
 20
153.0
 11
-181.4368
 21
151.5
  0
LINE
  8
0
  6
CONTINUOUS
 62
     7
 10
-200.7368
 20
150.0
 11
-200.7368
 21
153.0
  0
LINE
  8
0
  6
CONTINUOUS
 62
     7
 10
-188.1368
 20
141.0
 11
-188.1368
 21
138.0
  0
LINE
  8
0
  6
CONTINUOUS
 62
     7
 10
-182.7368
 20
141.0
 11
-182.7368
 21
138.0
  0
LINE
  8
0
  6
CONTINUOUS
 62
     7
 10
-203.4368
 20
147.3
 11
-206.4368
 21
147.3
  0
LINE
  8
0
  6
CENTER
 62
     2
 10
-180.9368
 20
148.9
 11
-177.9368
 21
148.9
  0
LINE
  8
0
  6
CENTER
 62
     2
 10
-180.9368
 20
146.75
 11
-177.9368
 21
146.75
  0
LINE
  8
0
  6
CENTER
 62
     2
 10
-180.9368
 20
144.25
 11
-177.9368
 21
144.25
  0
LINE
  8
0
  6
CENTER
 62
     2
 10
-180.9368
 20
142.1
 11
-177.9368
 21
142.1
  0
LINE
  8
0
  6
CENTER
 62
     2
 10
-179.4368
 20
152.5
 11
-179.4368
 21
138.5
  0
LINE
  8
0
  6
CONTINUOUS
 62
     7
 10
-181.4368
 20
139.5
 11
-181.4368
 21
138.0
  0
LINE
  8
0
  6
CONTINUOUS
 62
     7
 10
-181.4368
 20
151.5
 11
-181.4368
 21
139.5
  0
LINE
  8
0
  6
CONTINUOUS
 62
     7
 10
-181.4368
 20
151.5
 11
-178.4368
 21
151.5
  0
LINE
  8
0
  6
CONTINUOUS
 62
     7
 10
-176.4368
 20
149.5
 11
-176.4368
 21
141.5
  0
LINE
  8
0
  6
CONTINUOUS
 62
     7
 10
-181.4368
 20
139.5
 11
-178.4368
 21
139.5
  0
LINE
  8
0
  6
CONTINUOUS
 62
     7
 10
-314.4368
 20
22.0
 11
-314.4368
 21
-30.0
  0
LINE
  8
0
  6
CONTINUOUS
 62
     7
 10
-299.4368
 20
22.0
 11
-299.4368
 21
-30.0
  0
LINE
  8
0
  6
CONTINUOUS
 62
     7
 10
-314.4368
 20
5.0
 11
-299.4368
 21
5.0
  0
LINE
  8
0
  6
CONTINUOUS
 62
     7
 10
-314.4368
 20
-23.0
 11
-299.4368
 21
-23.0
  0
LINE
  8
0
  6
CONTINUOUS
 62
     7
 10
-308.6868
 20
-30.5
 11
-299.9368
 21
-30.5
  0
LINE
  8
0
  6
CENTER
 62
     2
 10
-306.9368
 20
60.70551
 11
-306.9368
 21
-35.2
  0
LINE
  8
0
  6
CENTER
 62
     2
 10
-311.6816
 20
13.70001
 11
-301.9604
 21
13.70001
  0
LINE
  8
0
  6
CENTER
 62
     2
 10
-313.7236
 20
1.0
 11
-306.1035
 21
1.0
  0
LINE
  8
0
  6
CENTER
 62
     2
 10
-311.1035
 20
-9.0
 11
-302.7701
 21
-9.0
  0
LINE
  8
0
  6
CENTER
 62
     2
 10
-307.4368
 20
-19.0
 11
-300.321
 21
-19.0
  0
LINE
  8
0
  6
CENTER
 62
     2
 10
-303.9368
 20
-15.36873
 11
-303.9368
 21
-22.50148
  0
LINE
  8
0
  6
CENTER
 62
     2
 10
-309.9368
 20
4.47641
 11
-309.9368
 21
-2.61948
  0
LINE
  8
0
  6
CENTER
 62
     2
 10
-304.1035
 20
0.0
 11
-299.4368
 21
0.0
  0
LINE
  8
0
  6
CENTER
 62
     2
 10
-314.4368
 20
-18.0
 11
-310.0422
 21
-18.0
  0
LINE
  8
0
  6
CENTER
 62
     2
 10
-301.4368
 20
2.34808
 11
-301.4368
 21
-2.42625
  0
LINE
  8
0
  6
CENTER
 62
     2
 10
-312.4368
 20
-15.59882
 11
-312.4368
 21
-20.4882
  0
LINE
  8
0
  6
CENTER
 62
     2
 10
-311.4368
 20
-24.3739
 11
-311.4368
 21
-31.80753
  0
LINE
  8
0
  6
CONTINUOUS
 62
     7
 10
-314.1868
 20
-25.5
 11
-308.7368
 21
-25.5
  0
LINE
  8
0
  6
CONTINUOUS
 62
     7
 10
-308.2368
 20
-26.0
 11
-308.2368
 21
-30.0
  0
LINE
  8
0
  6
CONTINUOUS
 62
     7
 10
-314.1868
 20
-25.5
 11
-314.1868
 21
-30.7
  0
LINE
  8
0
  6
CONTINUOUS
 62
     7
 10
-308.6868
 20
-25.5
 11
-308.6868
 21
-30.7
  0
LINE
  8
0
  6
CONTINUOUS
 62
     7
 10
-314.1868
 20
-30.7
 11
-308.6868
 21
-30.7
  0
LINE
  8
0
  6
CONTINUOUS
 62
     7
 10
-308.351
 20
12.28582
 11
-305.5226
 21
15.11425
  0
LINE
  8
0
  6
CONTINUOUS
 62
     7
 10
-307.4544
 20
11.76815
 11
-305.0049
 21
14.21764
  0
LINE
  8
0
  6
CONTINUOUS
 62
     7
 10
-308.8687
 20
13.18239
 11
-306.4192
 21
15.63189
  0
LINE
  8
0
  6
CONTINUOUS
 62
     7
 10
-308.351
 20
15.11418
 11
-305.5226
 21
12.28575
  0
LINE
  8
0
  6
CONTINUOUS
 62
     7
 10
-308.8686
 20
14.21766
 11
-306.4191
 21
11.76816
  0
LINE
  8
0
  6
CONTINUOUS
 62
     7
 10
-307.4544
 20
15.63185
 11
-305.0049
 21
13.18236
  0
LINE
  8
0
  6
CONTINUOUS
 62
     7
 10
-312.9102
 20
-29.7
 11
-312.9102
 21
-30.7
  0
LINE
  8
0
  6
CONTINUOUS
 62
     7
 10
-313.7587
 20
-29.7
 11
-313.7587
 21
-30.7
  0
LINE
  8
0
  6
CONTINUOUS
 62
     7
 10
-313.7587
 20
-29.7
 11
-312.9102
 21
-29.7
  0
LINE
  8
0
  6
CONTINUOUS
 62
     7
 10
-314.4368
 20
52.70001
 11
-314.4368
 21
22.0
  0
LINE
  8
0
  6
CONTINUOUS
 62
     7
 10
-314.4368
 20
22.0
 11
-299.4368
 21
22.0
  0
LINE
  8
0
  6
CONTINUOUS
 62
     7
 10
-299.4368
 20
52.70001
 11
-299.4368
 21
22.0
  0
LINE
  8
0
  6
CONTINUOUS
 62
     7
 10
-313.4368
 20
44.20001
 11
-300.4368
 21
44.20001
  0
LINE
  8
0
  6
CONTINUOUS
 62
     7
 10
-313.4368
 20
40.20001
 11
-300.4368
 21
40.20001
  0
LINE
  8
0
  6
CONTINUOUS
 62
     7
 10
-300.4368
 20
44.20001
 11
-300.4368
 21
40.20001
  0
LINE
  8
0
  6
CONTINUOUS
 62
     7
 10
-313.4368
 20
44.20001
 11
-313.4368
 21
40.20001
  0
LINE
  8
0
  6
CONTINUOUS
 62
     7
 10
-312.7247
 20
43.30676
 11
-310.383
 21
43.30676
  0
LINE
  8
0
  6
CONTINUOUS
 62
     7
 10
-312.7247
 20
41.23019
 11
-310.7365
 21
41.23019
  0
LINE
  8
0
  6
CONTINUOUS
 62
     7
 10
-312.7247
 20
40.70001
 11
-310.0295
 21
40.70001
  0
LINE
  8
0
  6
CONTINUOUS
 62
     7
 10
-312.7247
 20
42.77658
 11
-310.7365
 21
42.77658
  0
LINE
  8
0
  6
CONTINUOUS
 62
     7
 10
-312.7247
 20
43.30676
 11
-312.7247
 21
42.77658
  0
LINE
  8
0
  6
CONTINUOUS
 62
     7
 10
-310.0295
 20
42.95331
 11
-310.0295
 21
40.70001
  0
LINE
  8
0
  6
CONTINUOUS
 62
     7
 10
-310.7365
 20
42.77658
 11
-310.7365
 21
41.23019
  0
LINE
  8
0
  6
CONTINUOUS
 62
     7
 10
-309.6319
 20
43.30676
 11
-309.6319
 21
42.77658
  0
LINE
  8
0
  6
CONTINUOUS
 62
     7
 10
-307.1135
 20
42.77658
 11
-307.1135
 21
41.05347
  0
LINE
  8
0
  6
CONTINUOUS
 62
     7
 10
-307.8204
 20
42.77658
 11
-307.8204
 21
41.23019
  0
LINE
  8
0
  6
CONTINUOUS
 62
     7
 10
-312.7247
 20
41.23019
 11
-312.7247
 21
40.70001
  0
LINE
  8
0
  6
CONTINUOUS
 62
     7
 10
-309.6319
 20
43.30676
 11
-308.9334
 21
43.30676
  0
LINE
  8
0
  6
CONTINUOUS
 62
     7
 10
-309.6319
 20
40.70001
 11
-309.083
 21
40.70001
  0
LINE
  8
0
  6
CONTINUOUS
 62
     7
 10
-309.6319
 20
40.69999
 11
-309.0754
 21
42.77657
  0
LINE
  8
0
  6
CONTINUOUS
 62
     7
 10
-309.6319
 20
42.77658
 11
-309.0755
 21
42.77658
  0
LINE
  8
0
  6
CONTINUOUS
 62
     7
 10
-309.083
 20
40.69994
 11
-308.5266
 21
42.77653
  0
LINE
  8
0
  6
CONTINUOUS
 62
     7
 10
-308.3506
 20
41.23019
 11
-307.8204
 21
41.23019
  0
LINE
  8
0
  6
CONTINUOUS
 62
     7
 10
-308.3506
 20
41.23018
 11
-308.2086
 21
40.69998
  0
LINE
  8
0
  6
CONTINUOUS
 62
     7
 10
-308.2086
 20
40.70001
 11
-307.4669
 21
40.70001
  0
LINE
  8
0
  6
CONTINUOUS
 62
     7
 10
-308.5266
 20
42.77658
 11
-307.8204
 21
42.77658
  0
LINE
  8
0
  6
CONTINUOUS
 62
     7
 10
-308.3845
 20
43.30676
 11
-307.6437
 21
43.30676
  0
LINE
  8
0
  6
CONTINUOUS
 62
     7
 10
-308.9334
 20
43.30675
 11
-308.828
 21
43.69998
  0
LINE
  8
0
  6
CONTINUOUS
 62
     7
 10
-308.3845
 20
43.3068
 11
-308.2792
 21
43.70001
  0
LINE
  8
0
  6
CONTINUOUS
 62
     7
 10
-306.6717
 20
43.30676
 11
-305.8322
 21
43.30676
  0
LINE
  8
0
  6
CONTINUOUS
 62
     7
 10
-306.6717
 20
42.77658
 11
-304.61
 21
42.77658
  0
LINE
  8
0
  6
CONTINUOUS
 62
     7
 10
-305.8322
 20
40.70001
 11
-305.1253
 21
40.70001
  0
LINE
  8
0
  6
CONTINUOUS
 62
     7
 10
-306.6717
 20
43.30676
 11
-306.6717
 21
42.77658
  0
LINE
  8
0
  6
CONTINUOUS
 62
     7
 10
-304.0649
 20
41.81519
 11
-304.0649
 21
41.23019
  0
LINE
  8
0
  6
CONTINUOUS
 62
     7
 10
-306.6717
 20
41.23013
 11
-305.8322
 21
41.6216
  0
LINE
  8
0
  6
CONTINUOUS
 62
     7
 10
-306.6716
 20
41.81517
 11
-304.6099
 21
42.77657
  0
LINE
  8
0
  6
CONTINUOUS
 62
     7
 10
-306.6717
 20
41.81519
 11
-306.6717
 21
41.23019
  0
LINE
  8
0
  6
CONTINUOUS
 62
     7
 10
-305.1253
 20
41.72466
 11
-304.0648
 21
41.23018
  0
LINE
  8
0
  6
CONTINUOUS
 62
     7
 10
-304.741
 20
42.13044
 11
-304.0648
 21
41.81516
  0
LINE
  8
0
  6
CONTINUOUS
 62
     7
 10
-304.0649
 20
42.95331
 11
-304.0649
 21
42.67093
  0
LINE
  8
0
  6
CONTINUOUS
 62
     7
 10
-305.8322
 20
43.70001
 11
-305.8322
 21
43.30676
  0
LINE
  8
0
  6
CONTINUOUS
 62
     7
 10
-305.1253
 20
43.70001
 11
-305.1253
 21
43.30676
  0
LINE
  8
0
  6
CONTINUOUS
 62
     7
 10
-305.1253
 20
43.30676
 11
-304.4184
 21
43.30676
  0
LINE
  8
0
  6
CONTINUOUS
 62
     7
 10
-305.8322
 20
41.62164
 11
-305.8322
 21
40.70001
  0
LINE
  8
0
  6
CONTINUOUS
 62
     7
 10
-305.1253
 20
41.72464
 11
-305.1253
 21
40.70001
  0
LINE
  8
0
  6
CONTINUOUS
 62
     7
 10
-304.7409
 20
42.13038
 11
-304.2689
 21
42.35049
  0
LINE
  8
0
  6
CONTINUOUS
 62
     7
 10
-301.679
 20
43.54095
 11
-301.1488
 21
43.54095
  0
LINE
  8
0
  6
CONTINUOUS
 62
     7
 10
-303.844
 20
42.44574
 11
-303.844
 21
41.87518
  0
LINE
  8
0
  6
CONTINUOUS
 62
     7
 10
-301.1488
 20
43.54095
 11
-301.1488
 21
43.30676
  0
LINE
  8
0
  6
CONTINUOUS
 62
     7
 10
-301.679
 20
43.54095
 11
-301.679
 21
43.4267
  0
LINE
  8
0
  6
CONTINUOUS
 62
     7
 10
-302.386
 20
42.45505
 11
-302.386
 21
40.70001
  0
LINE
  8
0
  6
CONTINUOUS
 62
     7
 10
-303.8439
 20
42.44573
 11
-301.7904
 21
43.26244
  0
LINE
  8
0
  6
CONTINUOUS
 62
     7
 10
-303.844
 20
41.87521
 11
-302.386
 21
42.45509
  0
LINE
  8
0
  6
CONTINUOUS
 62
     7
 10
-302.386
 20
40.70001
 11
-301.679
 21
40.70001
  0
LINE
  8
0
  6
CONTINUOUS
 62
     7
 10
-301.679
 20
42.73621
 11
-301.679
 21
40.70001
  0
LINE
  8
0
  6
CONTINUOUS
 62
     7
 10
-301.6789
 20
42.7361
 11
-301.483
 21
42.81401
  0
LINE
  8
0
  6
CONTINUOUS
 62
     7
 10
-308.8281
 20
43.70001
 11
-308.2792
 21
43.70001
  0
LINE
  8
0
  6
CONTINUOUS
 62
     7
 10
-307.4007
 20
43.70001
 11
-307.1747
 21
43.70001
  0
LINE
  8
0
  6
CONTINUOUS
 62
     7
 10
-305.8322
 20
43.70001
 11
-305.1253
 21
43.70001
  0
LINE
  8
0
  6
CONTINUOUS
 62
     7
 10
-307.4007
 20
43.34653
 11
-307.1747
 21
43.34653
  0
LINE
  8
0
  6
CONTINUOUS
 62
     7
 10
-307.4007
 20
43.70001
 11
-307.4007
 21
43.34653
  0
LINE
  8
0
  6
CONTINUOUS
 62
     7
 10
-307.1747
 20
43.70001
 11
-307.1747
 21
43.34653
  0
LINE
  8
0
  6
CONTINUOUS
 62
     7
 10
-307.017
 20
43.70001
 11
-307.017
 21
43.34653
  0
LINE
  8
0
  6
CONTINUOUS
 62
     7
 10
-306.791
 20
43.70001
 11
-306.791
 21
43.34653
  0
LINE
  8
0
  6
CONTINUOUS
 62
     7
 10
-307.017
 20
43.70001
 11
-306.791
 21
43.70001
  0
LINE
  8
0
  6
CONTINUOUS
 62
     7
 10
-307.017
 20
43.34653
 11
-306.791
 21
43.34653
  0
LINE
  8
0
  6
CONTINUOUS
 62
     7
 10
-313.6868
 20
49.49371
 11
-313.6868
 21
48.79999
  0
LINE
  8
0
  6
CENTER
 62
     2
 10
-311.4368
 20
55.70001
 11
-311.4368
 21
45.20001
  0
LINE
  8
0
  6
CONTINUOUS
 62
     7
 10
-309.1868
 20
49.49374
 11
-309.1868
 21
48.79999
  0
LINE
  8
0
  6
CONTINUOUS
 62
     7
 10
-314.4368
 20
47.20001
 11
-299.4368
 21
47.20001
  0
LINE
  8
0
  6
CONTINUOUS
 62
     7
 10
-308.8868
 20
48.79999
 11
-313.9868
 21
48.79999
  0
LINE
  8
0
  6
CONTINUOUS
 62
     7
 10
-308.8868
 20
48.79999
 11
-308.8868
 21
48.19998
  0
LINE
  8
0
  6
CONTINUOUS
 62
     7
 10
-313.9868
 20
48.79999
 11
-313.9868
 21
48.19998
  0
LINE
  8
0
  6
CENTER
 62
     2
 10
-303.5367
 20
77.5
 11
-303.5367
 21
49.70001
  0
LINE
  8
0
  6
CONTINUOUS
 62
     7
 10
-302.6868
 20
64.5
 11
-302.6868
 21
59.13766
  0
LINE
  8
0
  6
CONTINUOUS
 62
     7
 10
-304.3868
 20
64.5
 11
-304.3868
 21
59.5932
  0
LINE
  8
0
  6
CONTINUOUS
 62
     7
 10
-303.8568
 20
74.5
 11
-303.8568
 21
64.5
  0
LINE
  8
0
  6
CONTINUOUS
 62
     7
 10
-303.2168
 20
74.5
 11
-303.2168
 21
64.5
  0
LINE
  8
0
  6
CONTINUOUS
 62
     7
 10
-304.3868
 20
64.5
 11
-302.6868
 21
64.5
  0
LINE
  8
0
  6
CONTINUOUS
 62
     7
 10
-303.8568
 20
74.5
 11
-303.2168
 21
74.5
  0
LINE
  8
0
  6
CENTER
 62
     2
 10
-310.3368
 20
77.5
 11
-310.3368
 21
49.70001
  0
LINE
  8
0
  6
CONTINUOUS
 62
     7
 10
-309.4868
 20
64.5
 11
-309.4868
 21
60.95972
  0
LINE
  8
0
  6
CONTINUOUS
 62
     7
 10
-311.1868
 20
64.5
 11
-311.1868
 21
61.41522
  0
LINE
  8
0
  6
CONTINUOUS
 62
     7
 10
-310.6568
 20
74.5
 11
-310.6568
 21
64.5
  0
LINE
  8
0
  6
CONTINUOUS
 62
     7
 10
-310.0168
 20
74.5
 11
-310.0168
 21
64.5
  0
LINE
  8
0
  6
CONTINUOUS
 62
     7
 10
-311.1868
 20
64.5
 11
-309.4868
 21
64.5
  0
LINE
  8
0
  6
CONTINUOUS
 62
     7
 10
-310.6568
 20
74.5
 11
-310.0168
 21
74.5
  0
LINE
  8
0
  6
CENTER
 62
     2
 10
-308.1868
 20
77.5
 11
-308.1868
 21
49.70001
  0
LINE
  8
0
  6
CONTINUOUS
 62
     7
 10
-307.3368
 20
64.5
 11
-307.3368
 21
60.38364
  0
LINE
  8
0
  6
CONTINUOUS
 62
     7
 10
-309.0367
 20
64.5
 11
-309.0367
 21
60.83914
  0
LINE
  8
0
  6
CONTINUOUS
 62
     7
 10
-308.5068
 20
74.5
 11
-308.5068
 21
64.5
  0
LINE
  8
0
  6
CONTINUOUS
 62
     7
 10
-307.8668
 20
74.5
 11
-307.8668
 21
64.5
  0
LINE
  8
0
  6
CONTINUOUS
 62
     7
 10
-309.0368
 20
64.5
 11
-307.3368
 21
64.5
  0
LINE
  8
0
  6
CONTINUOUS
 62
     7
 10
-308.5068
 20
74.5
 11
-307.8668
 21
74.5
  0
LINE
  8
0
  6
CENTER
 62
     2
 10
-305.6868
 20
77.5
 11
-305.6868
 21
49.70001
  0
LINE
  8
0
  6
CONTINUOUS
 62
     7
 10
-304.8368
 20
64.5
 11
-304.8368
 21
59.71375
  0
LINE
  8
0
  6
CONTINUOUS
 62
     7
 10
-306.5367
 20
64.5
 11
-306.5367
 21
60.16928
  0
LINE
  8
0
  6
CONTINUOUS
 62
     7
 10
-306.0068
 20
74.5
 11
-306.0068
 21
64.5
  0
LINE
  8
0
  6
CONTINUOUS
 62
     7
 10
-305.3668
 20
74.5
 11
-305.3668
 21
64.5
  0
LINE
  8
0
  6
CONTINUOUS
 62
     7
 10
-306.5368
 20
64.5
 11
-304.8368
 21
64.5
  0
LINE
  8
0
  6
CONTINUOUS
 62
     7
 10
-306.0068
 20
74.5
 11
-305.3668
 21
74.5
  0
LINE
  8
0
  6
CONTINUOUS
 62
     7
 10
-314.4368
 20
52.70001
 11
-312.9368
 21
52.70001
  0
LINE
  8
0
  6
CONTINUOUS
 62
     7
 10
-308.7368
 20
52.70001
 11
-308.7368
 21
48.19998
  0
LINE
  8
0
  6
CONTINUOUS
 62
     7
 10
-314.4368
 20
48.19998
 11
-308.7368
 21
48.19998
  0
LINE
  8
0
  6
PHANTOM
 62
     2
 10
-313.1867
 20
61.95111
 11
-300.6868
 21
58.60176
  0
LINE
  8
0
  6
PHANTOM
 62
     2
 10
-313.1868
 20
60.39822
 11
-300.6868
 21
57.04885
  0
LINE
  8
0
  6
CONTINUOUS
 62
     7
 10
-311.1868
 20
59.8623
 11
-311.1868
 21
54.5
  0
LINE
  8
0
  6
CONTINUOUS
 62
     7
 10
-309.0367
 20
59.28622
 11
-309.0367
 21
54.5
  0
LINE
  8
0
  6
CONTINUOUS
 62
     7
 10
-309.4868
 20
59.4068
 11
-309.4868
 21
54.5
  0
LINE
  8
0
  6
CONTINUOUS
 62
     7
 10
-307.3368
 20
58.83072
 11
-307.3368
 21
54.5
  0
LINE
  8
0
  6
CONTINUOUS
 62
     7
 10
-306.5367
 20
58.61636
 11
-306.5367
 21
54.5
  0
LINE
  8
0
  6
CONTINUOUS
 62
     7
 10
-304.8368
 20
58.16086
 11
-304.8368
 21
54.5
  0
LINE
  8
0
  6
CONTINUOUS
 62
     7
 10
-304.3868
 20
58.04028
 11
-304.3868
 21
54.5
  0
LINE
  8
0
  6
CONTINUOUS
 62
     7
 10
-302.6868
 20
57.58475
 11
-302.6868
 21
54.5
  0
LINE
  8
0
  6
CONTINUOUS
 62
     7
 10
-300.9368
 20
52.70001
 11
-299.4368
 21
52.70001
  0
LINE
  8
0
  6
CONTINUOUS
 62
     7
 10
-312.4368
 20
54.5
 11
-301.4368
 21
54.5
  0
LINE
  8
0
  6
CONTINUOUS
 62
     7
 10
-312.9368
 20
54.0
 11
-312.9368
 21
52.70001
  0
LINE
  8
0
  6
CONTINUOUS
 62
     7
 10
-312.9368
 20
52.70001
 11
-300.9368
 21
52.70001
  0
LINE
  8
0
  6
CONTINUOUS
 62
     7
 10
-300.9368
 20
54.0
 11
-300.9368
 21
52.70001
  0
LINE
  8
0
  6
CONTINUOUS
 62
     7
 10
-58.43677
 20
22.0
 11
-58.43677
 21
-30.0
  0
LINE
  8
0
  6
CONTINUOUS
 62
     7
 10
-43.43677
 20
22.0
 11
-43.43677
 21
-30.0
  0
LINE
  8
0
  6
CONTINUOUS
 62
     7
 10
-58.43677
 20
5.0
 11
-43.43677
 21
5.0
  0
LINE
  8
0
  6
CONTINUOUS
 62
     7
 10
-58.43677
 20
-23.0
 11
-43.43677
 21
-23.0
  0
LINE
  8
0
  6
CONTINUOUS
 62
     7
 10
-52.68677
 20
-30.5
 11
-43.93677
 21
-30.5
  0
LINE
  8
0
  6
CENTER
 62
     2
 10
-51.40137
 20
-4.0
 11
-44.45154
 21
-4.0
  0
LINE
  8
0
  6
CENTER
 62
     2
 10
-57.25391
 20
-14.0
 11
-50.30402
 21
-14.0
  0
LINE
  8
0
  6
CENTER
 62
     2
 10
-47.93677
 20
-0.40118
 11
-47.93677
 21
-8.17404
  0
LINE
  8
0
  6
CENTER
 62
     2
 10
-53.93677
 20
-10.55162
 11
-53.93677
 21
-17.50148
  0
LINE
  8
0
  6
CENTER
 62
     2
 10
-49.0238
 20
-18.0
 11
-42.80548
 21
-18.0
  0
LINE
  8
0
  6
CENTER
 62
     2
 10
-45.43677
 20
-14.48378
 11
-45.43677
 21
-21.43362
  0
LINE
  8
0
  6
CENTER
 62
     2
 10
-56.43677
 20
3.62242
 11
-56.43677
 21
-3.69322
  0
LINE
  8
0
  6
CENTER
 62
     2
 10
-53.32172
 20
18.5
 11
-48.4751
 21
18.5
  0
LINE
  8
0
  6
CENTER
 62
     2
 10
-55.43677
 20
-23.99518
 11
-55.43677
 21
-31.4724
  0
LINE
  8
0
  6
CONTINUOUS
 62
     7
 10
-52.23676
 20
-26.0
 11
-52.23676
 21
-30.0
  0
LINE
  8
0
  6
CONTINUOUS
 62
     7
 10
-58.18677
 20
-25.5
 11
-52.68677
 21
-25.5
  0
LINE
  8
0
  6
CONTINUOUS
 62
     7
 10
-52.68677
 20
-25.5
 11
-52.68677
 21
-30.7
  0
LINE
  8
0
  6
CONTINUOUS
 62
     7
 10
-58.18677
 20
-25.5
 11
-58.18677
 21
-30.7
  0
LINE
  8
0
  6
CONTINUOUS
 62
     7
 10
-58.18677
 20
-30.7
 11
-52.68677
 21
-30.7
  0
LINE
  8
0
  6
CENTER
 62
     2
 10
-59.06335
 20
0.0
 11
-52.77307
 21
0.0
  0
LINE
  8
0
  6
CONTINUOUS
 62
     7
 10
-56.91022
 20
-29.7
 11
-56.91022
 21
-30.7
  0
LINE
  8
0
  6
CONTINUOUS
 62
     7
 10
-57.75873
 20
-29.7
 11
-57.75873
 21
-30.7
  0
LINE
  8
0
  6
CONTINUOUS
 62
     7
 10
-57.75873
 20
-29.7
 11
-56.91022
 21
-29.7
  0
LINE
  8
0
  6
CONTINUOUS
 62
     7
 10
-58.43677
 20
52.70001
 11
-58.43677
 21
22.0
  0
LINE
  8
0
  6
CONTINUOUS
 62
     7
 10
-43.43677
 20
52.70001
 11
-43.43677
 21
22.0
  0
LINE
  8
0
  6
CONTINUOUS
 62
     7
 10
-58.43677
 20
22.0
 11
-43.43677
 21
22.0
  0
LINE
  8
0
  6
CONTINUOUS
 62
     7
 10
-52.93677
 20
32.79999
 11
-48.93677
 21
32.79999
  0
LINE
  8
0
  6
CONTINUOUS
 62
     7
 10
-52.93677
 20
30.79999
 11
-48.93677
 21
30.79999
  0
LINE
  8
0
  6
CONTINUOUS
 62
     7
 10
-48.93677
 20
32.79999
 11
-48.93677
 21
30.79999
  0
LINE
  8
0
  6
CONTINUOUS
 62
     7
 10
-52.93677
 20
32.79999
 11
-52.93677
 21
30.79999
  0
LINE
  8
0
  6
CONTINUOUS
 62
     7
 10
-53.43677
 20
33.29999
 11
-48.43677
 21
33.29999
  0
LINE
  8
0
  6
CONTINUOUS
 62
     7
 10
-53.43677
 20
33.29999
 11
-53.43677
 21
30.29999
  0
LINE
  8
0
  6
CONTINUOUS
 62
     7
 10
-53.43677
 20
30.29999
 11
-48.43677
 21
30.29999
  0
LINE
  8
0
  6
CONTINUOUS
 62
     7
 10
-48.43677
 20
33.29999
 11
-48.43677
 21
30.29999
  0
LINE
  8
0
  6
CONTINUOUS
 62
     7
 10
-52.9368
 20
32.79995
 11
-53.43679
 21
33.29994
  0
LINE
  8
0
  6
CONTINUOUS
 62
     7
 10
-52.93679
 20
30.80003
 11
-53.43682
 21
30.29999
  0
LINE
  8
0
  6
CONTINUOUS
 62
     7
 10
-48.93676
 20
30.79998
 11
-48.43676
 21
30.29998
  0
LINE
  8
0
  6
CONTINUOUS
 62
     7
 10
-48.9368
 20
32.79996
 11
-48.43681
 21
33.29995
  0
LINE
  8
0
  6
CONTINUOUS
 62
     7
 10
-57.93677
 20
52.5
 11
-56.93677
 21
52.5
  0
LINE
  8
0
  6
CONTINUOUS
 62
     7
 10
-56.43677
 20
51.5
 11
-45.43677
 21
51.5
  0
LINE
  8
0
  6
CONTINUOUS
 62
     7
 10
-56.43677
 20
41.5
 11
-45.43677
 21
41.5
  0
LINE
  8
0
  6
CONTINUOUS
 62
     7
 10
-56.43677
 20
51.5
 11
-56.43677
 21
41.5
  0
LINE
  8
0
  6
CONTINUOUS
 62
     7
 10
-45.43677
 20
51.5
 11
-45.43677
 21
41.5
  0
LINE
  8
0
  6
CONTINUOUS
 62
     7
 10
-52.46407
 20
37.5182
 11
-51.95498
 21
38.0273
  0
LINE
  8
0
  6
CONTINUOUS
 62
     7
 10
-49.91854
 20
34.97263
 11
-49.40944
 21
35.48172
  0
LINE
  8
0
  6
CONTINUOUS
 62
     7
 10
-52.46412
 20
35.48174
 11
-51.95502
 21
35.99083
  0
LINE
  8
0
  6
CONTINUOUS
 62
     7
 10
-51.95495
 20
34.97264
 11
-51.44585
 21
35.48174
  0
LINE
  8
0
  6
CONTINUOUS
 62
     7
 10
-49.91842
 20
38.02745
 11
-49.4093
 21
37.51833
  0
LINE
  8
0
  6
CONTINUOUS
 62
     7
 10
-52.46404
 20
35.48184
 11
-51.95493
 21
34.97272
  0
LINE
  8
0
  6
CONTINUOUS
 62
     7
 10
-51.95491
 20
38.02745
 11
-51.44579
 21
37.51833
  0
LINE
  8
0
  6
CONTINUOUS
 62
     7
 10
-52.46411
 20
37.51829
 11
-51.95499
 21
37.00917
  0
LINE
  8
0
  6
CONTINUOUS
 62
     7
 10
-50.42764
 20
35.48182
 11
-49.91852
 21
34.9727
  0
LINE
  8
0
  6
CONTINUOUS
 62
     7
 10
-49.91845
 20
35.99099
 11
-49.40933
 21
35.48187
  0
LINE
  8
0
  6
CONTINUOUS
 62
     7
 10
-49.91848
 20
37.00911
 11
-49.40938
 21
37.51821
  0
LINE
  8
0
  6
CONTINUOUS
 62
     7
 10
-50.42765
 20
37.51821
 11
-49.91855
 21
38.02731
  0
LINE
  8
0
  6
CENTER
 62
     2
 10
-47.53674
 20
77.5
 11
-47.53674
 21
49.5
  0
LINE
  8
0
  6
CONTINUOUS
 62
     7
 10
-46.68677
 20
64.5
 11
-46.68677
 21
59.1377
  0
LINE
  8
0
  6
CONTINUOUS
 62
     7
 10
-48.38678
 20
64.5
 11
-48.38678
 21
59.5932
  0
LINE
  8
0
  6
CONTINUOUS
 62
     7
 10
-47.85675
 20
74.5
 11
-47.85675
 21
64.5
  0
LINE
  8
0
  6
CONTINUOUS
 62
     7
 10
-47.2168
 20
74.5
 11
-47.2168
 21
64.5
  0
LINE
  8
0
  6
CONTINUOUS
 62
     7
 10
-48.38678
 20
64.5
 11
-46.68677
 21
64.5
  0
LINE
  8
0
  6
CONTINUOUS
 62
     7
 10
-47.85675
 20
74.5
 11
-47.2168
 21
74.5
  0
LINE
  8
0
  6
CENTER
 62
     2
 10
-54.33679
 20
77.5
 11
-54.33679
 21
49.5
  0
LINE
  8
0
  6
CONTINUOUS
 62
     7
 10
-53.48676
 20
64.5
 11
-53.48676
 21
60.95972
  0
LINE
  8
0
  6
CONTINUOUS
 62
     7
 10
-55.18677
 20
64.5
 11
-55.18677
 21
61.41525
  0
LINE
  8
0
  6
CONTINUOUS
 62
     7
 10
-54.65674
 20
74.5
 11
-54.65674
 21
64.5
  0
LINE
  8
0
  6
CONTINUOUS
 62
     7
 10
-54.01678
 20
74.5
 11
-54.01678
 21
64.5
  0
LINE
  8
0
  6
CONTINUOUS
 62
     7
 10
-55.18677
 20
64.5
 11
-53.48676
 21
64.5
  0
LINE
  8
0
  6
CONTINUOUS
 62
     7
 10
-54.6568
 20
74.5
 11
-54.01678
 21
74.5
  0
LINE
  8
0
  6
CENTER
 62
     2
 10
-52.18677
 20
77.5
 11
-52.18677
 21
49.5
  0
LINE
  8
0
  6
CONTINUOUS
 62
     7
 10
-51.33679
 20
64.5
 11
-51.33679
 21
60.38364
  0
LINE
  8
0
  6
CONTINUOUS
 62
     7
 10
-53.03674
 20
64.5
 11
-53.03674
 21
60.83914
  0
LINE
  8
0
  6
CONTINUOUS
 62
     7
 10
-52.50677
 20
74.5
 11
-52.50677
 21
64.5
  0
LINE
  8
0
  6
CONTINUOUS
 62
     7
 10
-51.86676
 20
74.5
 11
-51.86676
 21
64.5
  0
LINE
  8
0
  6
CONTINUOUS
 62
     7
 10
-53.0368
 20
64.5
 11
-51.33679
 21
64.5
  0
LINE
  8
0
  6
CONTINUOUS
 62
     7
 10
-52.50677
 20
74.5
 11
-51.86676
 21
74.5
  0
LINE
  8
0
  6
CENTER
 62
     2
 10
-49.68677
 20
77.5
 11
-49.68677
 21
49.5
  0
LINE
  8
0
  6
CONTINUOUS
 62
     7
 10
-48.83679
 20
64.5
 11
-48.83679
 21
59.71378
  0
LINE
  8
0
  6
CONTINUOUS
 62
     7
 10
-50.53674
 20
64.5
 11
-50.53674
 21
60.16928
  0
LINE
  8
0
  6
CONTINUOUS
 62
     7
 10
-50.00677
 20
74.5
 11
-50.00677
 21
64.5
  0
LINE
  8
0
  6
CONTINUOUS
 62
     7
 10
-49.36676
 20
74.5
 11
-49.36676
 21
64.5
  0
LINE
  8
0
  6
CONTINUOUS
 62
     7
 10
-50.5368
 20
64.5
 11
-48.83679
 21
64.5
  0
LINE
  8
0
  6
CONTINUOUS
 62
     7
 10
-50.00677
 20
74.5
 11
-49.36676
 21
74.5
  0
LINE
  8
0
  6
CONTINUOUS
 62
     7
 10
-44.93677
 20
52.70001
 11
-43.43677
 21
52.70001
  0
LINE
  8
0
  6
CONTINUOUS
 62
     7
 10
-58.43677
 20
52.70001
 11
-56.93677
 21
52.70001
  0
LINE
  8
0
  6
CENTER
 62
     2
 10
-54.93677
 20
31.79999
 11
-46.93677
 21
31.79999
  0
LINE
  8
0
  6
CENTER
 62
     2
 10
-55.93677
 20
36.5
 11
-45.93677
 21
36.5
  0
LINE
  8
0
  6
PHANTOM
 62
     2
 10
-57.18682
 20
61.95108
 11
-44.68682
 21
58.60173
  0
LINE
  8
0
  6
PHANTOM
 62
     2
 10
-57.18674
 20
60.39822
 11
-44.68671
 21
57.04885
  0
LINE
  8
0
  6
CONTINUOUS
 62
     7
 10
-55.18677
 20
59.86234
 11
-55.18677
 21
54.5
  0
LINE
  8
0
  6
CONTINUOUS
 62
     7
 10
-53.48676
 20
59.4068
 11
-53.48676
 21
54.5
  0
LINE
  8
0
  6
CONTINUOUS
 62
     7
 10
-53.03674
 20
59.28622
 11
-53.03674
 21
54.5
  0
LINE
  8
0
  6
CONTINUOUS
 62
     7
 10
-51.33679
 20
58.83072
 11
-51.33679
 21
54.5
  0
LINE
  8
0
  6
CONTINUOUS
 62
     7
 10
-50.53674
 20
58.61636
 11
-50.53674
 21
54.5
  0
LINE
  8
0
  6
CONTINUOUS
 62
     7
 10
-48.83679
 20
58.16086
 11
-48.83679
 21
54.5
  0
LINE
  8
0
  6
CONTINUOUS
 62
     7
 10
-48.38678
 20
58.04028
 11
-48.38678
 21
54.5
  0
LINE
  8
0
  6
CONTINUOUS
 62
     7
 10
-46.68677
 20
57.58475
 11
-46.68677
 21
54.5
  0
LINE
  8
0
  6
CONTINUOUS
 62
     7
 10
-44.93677
 20
52.5
 11
-43.93677
 21
52.5
  0
LINE
  8
0
  6
CONTINUOUS
 62
     7
 10
-56.93677
 20
52.5
 11
-44.93677
 21
52.5
  0
LINE
  8
0
  6
CONTINUOUS
 62
     7
 10
-56.43677
 20
54.5
 11
-45.43677
 21
54.5
  0
LINE
  8
0
  6
CONTINUOUS
 62
     7
 10
-56.93677
 20
54.0
 11
-56.93677
 21
52.5
  0
LINE
  8
0
  6
CONTINUOUS
 62
     7
 10
-44.93677
 20
54.0
 11
-44.93677
 21
52.5
  0
LINE
  8
0
  6
CENTER
 62
     2
 10
-50.93677
 20
56.6629
 11
-50.93677
 21
-33.57834
  0
LINE
  8
0
  6
CONTINUOUS
 62
     7
 10
-205.9368
 20
-143.0
 11
-182.4368
 21
-143.0
  0
LINE
  8
0
  6
CONTINUOUS
 62
     7
 10
-205.9368
 20
-128.0
 11
-182.4368
 21
-128.0
  0
LINE
  8
0
  6
CONTINUOUS
 62
     7
 10
-206.4368
 20
-128.5
 11
-206.4368
 21
-142.5
  0
LINE
  8
0
  6
CENTER
 62
     2
 10
-194.4368
 20
-126.8495
 11
-194.4368
 21
-144.0108
  0
LINE
  8
0
  6
CENTER
 62
     2
 10
-207.4207
 20
-135.5
 11
-161.1724
 21
-135.5
  0
LINE
  8
0
  6
CENTER
 62
     2
 10
-189.1626
 20
-131.0
 11
-181.9045
 21
-131.0
  0
LINE
  8
0
  6
CENTER
 62
     2
 10
-206.9045
 20
-140.0
 11
-199.8077
 21
-140.0
  0
LINE
  8
0
  6
CENTER
 62
     2
 10
-185.4368
 20
-127.3656
 11
-185.4368
 21
-134.6237
  0
LINE
  8
0
  6
CENTER
 62
     2
 10
-203.4368
 20
-136.2366
 11
-203.4368
 21
-143.4624
  0
LINE
  8
0
  6
CONTINUOUS
 62
     7
 10
-205.9368
 20
-136.8
 11
-203.4368
 21
-136.8
  0
LINE
  8
0
  6
CONTINUOUS
 62
     7
 10
-200.2368
 20
-140.0
 11
-200.2368
 21
-142.5
  0
LINE
  8
0
  6
CONTINUOUS
 62
     7
 10
-185.4368
 20
-134.2
 11
-182.9368
 21
-134.2
  0
LINE
  8
0
  6
CONTINUOUS
 62
     7
 10
-188.6368
 20
-128.5
 11
-188.6368
 21
-131.0
  0
LINE
  8
0
  6
CONTINUOUS
 62
     7
 10
-204.9101
 20
-142.322
 11
-203.8279
 21
-141.2398
  0
LINE
  8
0
  6
CONTINUOUS
 62
     7
 10
-205.7588
 20
-141.4734
 11
-204.6766
 21
-140.3912
  0
LINE
  8
0
  6
CONTINUOUS
 62
     7
 10
-186.9102
 20
-133.3219
 11
-185.828
 21
-132.2397
  0
LINE
  8
0
  6
CONTINUOUS
 62
     7
 10
-187.7587
 20
-132.4734
 11
-186.6765
 21
-131.3912
  0
LINE
  8
0
  6
CONTINUOUS
 62
     7
 10
-203.0455
 20
-138.7603
 11
-201.9633
 21
-137.6781
  0
LINE
  8
0
  6
CONTINUOUS
 62
     7
 10
-202.1971
 20
-139.6087
 11
-201.1149
 21
-138.5265
  0
LINE
  8
0
  6
CONTINUOUS
 62
     7
 10
-185.0456
 20
-129.7602
 11
-183.9634
 21
-128.678
  0
LINE
  8
0
  6
CONTINUOUS
 62
     7
 10
-184.197
 20
-130.6089
 11
-183.1148
 21
-129.5267
  0
LINE
  8
0
  6
CONTINUOUS
 62
     7
 10
-192.4368
 20
-129.0
 11
-192.4368
 21
-142.0
  0
LINE
  8
0
  6
CONTINUOUS
 62
     7
 10
-196.4368
 20
-129.0
 11
-196.4368
 21
-142.0
  0
LINE
  8
0
  6
CONTINUOUS
 62
     7
 10
-192.4368
 20
-142.0
 11
-196.4368
 21
-142.0
  0
LINE
  8
0
  6
CONTINUOUS
 62
     7
 10
-192.4368
 20
-129.0
 11
-196.4368
 21
-129.0
  0
LINE
  8
0
  6
CONTINUOUS
 62
     7
 10
-193.33
 20
-129.7121
 11
-193.33
 21
-132.0537
  0
LINE
  8
0
  6
CONTINUOUS
 62
     7
 10
-195.4066
 20
-129.7121
 11
-195.4066
 21
-131.7003
  0
LINE
  8
0
  6
CONTINUOUS
 62
     7
 10
-195.9368
 20
-129.7121
 11
-195.9368
 21
-132.4072
  0
LINE
  8
0
  6
CONTINUOUS
 62
     7
 10
-193.8602
 20
-129.7121
 11
-193.8602
 21
-131.7003
  0
LINE
  8
0
  6
CONTINUOUS
 62
     7
 10
-193.33
 20
-129.7121
 11
-193.8602
 21
-129.7121
  0
LINE
  8
0
  6
CONTINUOUS
 62
     7
 10
-193.6835
 20
-132.4072
 11
-195.9368
 21
-132.4072
  0
LINE
  8
0
  6
CONTINUOUS
 62
     7
 10
-193.8602
 20
-131.7003
 11
-195.4066
 21
-131.7003
  0
LINE
  8
0
  6
CONTINUOUS
 62
     7
 10
-193.33
 20
-132.8049
 11
-193.8602
 21
-132.8049
  0
LINE
  8
0
  6
CONTINUOUS
 62
     7
 10
-193.8602
 20
-135.3233
 11
-195.5833
 21
-135.3233
  0
LINE
  8
0
  6
CONTINUOUS
 62
     7
 10
-193.8602
 20
-134.6163
 11
-195.4066
 21
-134.6163
  0
LINE
  8
0
  6
CONTINUOUS
 62
     7
 10
-195.4066
 20
-129.7121
 11
-195.9368
 21
-129.7121
  0
LINE
  8
0
  6
CONTINUOUS
 62
     7
 10
-193.33
 20
-132.8049
 11
-193.33
 21
-133.5033
  0
LINE
  8
0
  6
CONTINUOUS
 62
     7
 10
-195.9368
 20
-132.8049
 11
-195.9368
 21
-133.3538
  0
LINE
  8
0
  6
CONTINUOUS
 62
     7
 10
-195.9368
 20
-132.8049
 11
-193.8602
 21
-133.3613
  0
LINE
  8
0
  6
CONTINUOUS
 62
     7
 10
-193.8602
 20
-132.8049
 11
-193.8602
 21
-133.3613
  0
LINE
  8
0
  6
CONTINUOUS
 62
     7
 10
-195.9368
 20
-133.3537
 11
-193.8602
 21
-133.9101
  0
LINE
  8
0
  6
CONTINUOUS
 62
     7
 10
-195.4066
 20
-134.0862
 11
-195.4066
 21
-134.6163
  0
LINE
  8
0
  6
CONTINUOUS
 62
     7
 10
-195.4066
 20
-134.086
 11
-195.9368
 21
-134.2281
  0
LINE
  8
0
  6
CONTINUOUS
 62
     7
 10
-195.9368
 20
-134.2282
 11
-195.9368
 21
-134.9698
  0
LINE
  8
0
  6
CONTINUOUS
 62
     7
 10
-193.8602
 20
-133.9102
 11
-193.8602
 21
-134.6163
  0
LINE
  8
0
  6
CONTINUOUS
 62
     7
 10
-193.33
 20
-134.0522
 11
-193.33
 21
-134.7931
  0
LINE
  8
0
  6
CONTINUOUS
 62
     7
 10
-193.33
 20
-133.5034
 11
-192.9368
 21
-133.6087
  0
LINE
  8
0
  6
CONTINUOUS
 62
     7
 10
-193.33
 20
-134.0523
 11
-192.9368
 21
-134.1577
  0
LINE
  8
0
  6
CONTINUOUS
 62
     7
 10
-193.33
 20
-135.7651
 11
-193.33
 21
-136.6046
  0
LINE
  8
0
  6
CONTINUOUS
 62
     7
 10
-193.8602
 20
-135.7651
 11
-193.8602
 21
-137.8268
  0
LINE
  8
0
  6
CONTINUOUS
 62
     7
 10
-195.9368
 20
-136.6046
 11
-195.9368
 21
-137.3115
  0
LINE
  8
0
  6
CONTINUOUS
 62
     7
 10
-193.33
 20
-135.7651
 11
-193.8602
 21
-135.7651
  0
LINE
  8
0
  6
CONTINUOUS
 62
     7
 10
-194.8216
 20
-138.3719
 11
-195.4066
 21
-138.3719
  0
LINE
  8
0
  6
CONTINUOUS
 62
     7
 10
-195.4066
 20
-135.7651
 11
-195.0151
 21
-136.6046
  0
LINE
  8
0
  6
CONTINUOUS
 62
     7
 10
-194.8216
 20
-135.7651
 11
-193.8602
 21
-137.8268
  0
LINE
  8
0
  6
CONTINUOUS
 62
     7
 10
-194.8216
 20
-135.7651
 11
-195.4066
 21
-135.7651
  0
LINE
  8
0
  6
CONTINUOUS
 62
     7
 10
-194.9121
 20
-137.3115
 11
-195.4065
 21
-138.3719
  0
LINE
  8
0
  6
CONTINUOUS
 62
     7
 10
-194.5063
 20
-137.6958
 11
-194.8216
 21
-138.372
  0
LINE
  8
0
  6
CONTINUOUS
 62
     7
 10
-193.6835
 20
-138.3719
 11
-193.9659
 21
-138.3719
  0
LINE
  8
0
  6
CONTINUOUS
 62
     7
 10
-192.9368
 20
-136.6046
 11
-193.33
 21
-136.6046
  0
LINE
  8
0
  6
CONTINUOUS
 62
     7
 10
-192.9368
 20
-137.3115
 11
-193.33
 21
-137.3115
  0
LINE
  8
0
  6
CONTINUOUS
 62
     7
 10
-193.33
 20
-137.3115
 11
-193.33
 21
-138.0184
  0
LINE
  8
0
  6
CONTINUOUS
 62
     7
 10
-195.0151
 20
-136.6046
 11
-195.9368
 21
-136.6046
  0
LINE
  8
0
  6
CONTINUOUS
 62
     7
 10
-194.9121
 20
-137.3115
 11
-195.9368
 21
-137.3115
  0
LINE
  8
0
  6
CONTINUOUS
 62
     7
 10
-194.5063
 20
-137.6958
 11
-194.2862
 21
-138.1678
  0
LINE
  8
0
  6
CONTINUOUS
 62
     7
 10
-193.0958
 20
-140.7578
 11
-193.0958
 21
-141.2879
  0
LINE
  8
0
  6
CONTINUOUS
 62
     7
 10
-194.191
 20
-138.5928
 11
-194.7616
 21
-138.5928
  0
LINE
  8
0
  6
CONTINUOUS
 62
     7
 10
-193.0958
 20
-141.2879
 11
-193.33
 21
-141.2879
  0
LINE
  8
0
  6
CONTINUOUS
 62
     7
 10
-193.0958
 20
-140.7578
 11
-193.2101
 21
-140.7578
  0
LINE
  8
0
  6
CONTINUOUS
 62
     7
 10
-194.1817
 20
-140.0508
 11
-195.9368
 21
-140.0508
  0
LINE
  8
0
  6
CONTINUOUS
 62
     7
 10
-194.191
 20
-138.5929
 11
-193.3743
 21
-140.6464
  0
LINE
  8
0
  6
CONTINUOUS
 62
     7
 10
-194.7616
 20
-138.5928
 11
-194.1817
 21
-140.0509
  0
LINE
  8
0
  6
CONTINUOUS
 62
     7
 10
-195.9368
 20
-140.0508
 11
-195.9368
 21
-140.7578
  0
LINE
  8
0
  6
CONTINUOUS
 62
     7
 10
-193.9006
 20
-140.7578
 11
-195.9368
 21
-140.7578
  0
LINE
  8
0
  6
CONTINUOUS
 62
     7
 10
-193.9007
 20
-140.7578
 11
-193.8227
 21
-140.9537
  0
LINE
  8
0
  6
CONTINUOUS
 62
     7
 10
-192.9368
 20
-133.6087
 11
-192.9368
 21
-134.1576
  0
LINE
  8
0
  6
CONTINUOUS
 62
     7
 10
-192.9368
 20
-135.0361
 11
-192.9368
 21
-135.2621
  0
LINE
  8
0
  6
CONTINUOUS
 62
     7
 10
-192.9368
 20
-136.6046
 11
-192.9368
 21
-137.3115
  0
LINE
  8
0
  6
CONTINUOUS
 62
     7
 10
-193.2902
 20
-135.0361
 11
-193.2902
 21
-135.2621
  0
LINE
  8
0
  6
CONTINUOUS
 62
     7
 10
-192.9368
 20
-135.0361
 11
-193.2902
 21
-135.0361
  0
LINE
  8
0
  6
CONTINUOUS
 62
     7
 10
-192.9368
 20
-135.2621
 11
-193.2902
 21
-135.2621
  0
LINE
  8
0
  6
CONTINUOUS
 62
     7
 10
-192.9368
 20
-135.4198
 11
-193.2902
 21
-135.4198
  0
LINE
  8
0
  6
CONTINUOUS
 62
     7
 10
-192.9368
 20
-135.6458
 11
-193.2902
 21
-135.6458
  0
LINE
  8
0
  6
CONTINUOUS
 62
     7
 10
-192.9368
 20
-135.4198
 11
-192.9368
 21
-135.6458
  0
LINE
  8
0
  6
CONTINUOUS
 62
     7
 10
-193.2902
 20
-135.4198
 11
-193.2902
 21
-135.6458
  0
LINE
  8
0
  6
CONTINUOUS
 62
     7
 10
-182.4368
 20
-143.0
 11
-162.9368
 21
-143.0
  0
LINE
  8
0
  6
CONTINUOUS
 62
     7
 10
-182.4368
 20
-128.0
 11
-162.9368
 21
-128.0
  0
LINE
  8
0
  6
CONTINUOUS
 62
     7
 10
-182.4368
 20
-128.0
 11
-182.4368
 21
-143.0
  0
LINE
  8
0
  6
CONTINUOUS
 62
     7
 10
-162.4368
 20
-128.5
 11
-162.4368
 21
-142.5
  0
LINE
  8
0
  6
CENTER
 62
     2
 10
172.4368
 20
3.43936
 11
172.4368
 21
-3.3425
  0
LINE
  8
0
  6
CENTER
 62
     2
 10
183.4368
 20
-14.47302
 11
183.4368
 21
-21.41019
  0
LINE
  8
0
  6
CENTER
 62
     2
 10
180.1682
 20
-18.0
 11
186.545
 21
-18.0
  0
LINE
  8
0
  6
CENTER
 62
     2
 10
169.866
 20
0.0
 11
175.9748
 21
0.0
  0
LINE
  8
0
  6
CONTINUOUS
 62
     7
 10
170.4368
 20
5.0
 11
185.4368
 21
5.0
  0
LINE
  8
0
  6
CENTER
 62
     2
 10
177.9368
 20
55.79449
 11
177.9368
 21
-33.82301
  0
LINE
  8
0
  6
CENTER
 62
     2
 10
175.5518
 20
18.5
 11
180.3984
 21
18.5
  0
LINE
  8
0
  6
CONTINUOUS
 62
     7
 10
170.4368
 20
22.0
 11
170.4368
 21
-30.0
  0
LINE
  8
0
  6
CONTINUOUS
 62
     7
 10
185.4368
 20
22.0
 11
185.4368
 21
-30.0
  0
LINE
  8
0
  6
CONTINUOUS
 62
     7
 10
170.4368
 20
-23.0
 11
185.4368
 21
-23.0
  0
LINE
  8
0
  6
CONTINUOUS
 62
     7
 10
170.9368
 20
-30.5
 11
184.9368
 21
-30.5
  0
LINE
  8
0
  6
CONTINUOUS
 62
     7
 10
170.9368
 20
-25.5
 11
176.1368
 21
-25.5
  0
LINE
  8
0
  6
CENTER
 62
     2
 10
173.4368
 20
-24.15001
 11
173.4368
 21
-31.05286
  0
LINE
  8
0
  6
CONTINUOUS
 62
     7
 10
176.6368
 20
-26.0
 11
176.6368
 21
-30.0
  0
LINE
  8
0
  6
CONTINUOUS
 62
     7
 10
170.6368
 20
-26.67183
 11
170.6368
 21
-25.5
  0
LINE
  8
0
  6
CONTINUOUS
 62
     7
 10
176.2368
 20
-26.67184
 11
176.2368
 21
-25.50002
  0
LINE
  8
0
  6
CONTINUOUS
 62
     7
 10
170.4368
 20
52.70001
 11
170.4368
 21
22.0
  0
LINE
  8
0
  6
CONTINUOUS
 62
     7
 10
185.4368
 20
52.70001
 11
185.4368
 21
22.0
  0
LINE
  8
0
  6
CONTINUOUS
 62
     7
 10
170.4368
 20
22.0
 11
185.4368
 21
22.0
  0
LINE
  8
0
  6
CONTINUOUS
 62
     7
 10
175.9368
 20
32.79999
 11
179.9368
 21
32.79999
  0
LINE
  8
0
  6
CONTINUOUS
 62
     7
 10
175.9368
 20
30.79999
 11
179.9368
 21
30.79999
  0
LINE
  8
0
  6
CONTINUOUS
 62
     7
 10
179.9368
 20
32.79999
 11
179.9368
 21
30.79999
  0
LINE
  8
0
  6
CONTINUOUS
 62
     7
 10
175.9368
 20
32.79999
 11
175.9368
 21
30.79999
  0
LINE
  8
0
  6
CONTINUOUS
 62
     7
 10
175.4368
 20
33.29999
 11
180.4368
 21
33.29999
  0
LINE
  8
0
  6
CONTINUOUS
 62
     7
 10
175.4368
 20
33.29999
 11
175.4368
 21
30.29999
  0
LINE
  8
0
  6
CONTINUOUS
 62
     7
 10
175.4368
 20
30.29999
 11
180.4368
 21
30.29999
  0
LINE
  8
0
  6
CONTINUOUS
 62
     7
 10
180.4368
 20
33.29999
 11
180.4368
 21
30.29999
  0
LINE
  8
0
  6
CONTINUOUS
 62
     7
 10
175.9368
 20
32.8
 11
175.4368
 21
33.3
  0
LINE
  8
0
  6
CONTINUOUS
 62
     7
 10
175.9368
 20
30.8
 11
175.4368
 21
30.3
  0
LINE
  8
0
  6
CONTINUOUS
 62
     7
 10
179.9368
 20
30.79997
 11
180.4368
 21
30.29998
  0
LINE
  8
0
  6
CONTINUOUS
 62
     7
 10
179.9368
 20
32.79998
 11
180.4368
 21
33.29998
  0
LINE
  8
0
  6
CONTINUOUS
 62
     7
 10
170.9368
 20
52.5
 11
171.9368
 21
52.5
  0
LINE
  8
0
  6
CONTINUOUS
 62
     7
 10
172.4368
 20
51.5
 11
183.4368
 21
51.5
  0
LINE
  8
0
  6
CONTINUOUS
 62
     7
 10
172.4368
 20
41.5
 11
183.4368
 21
41.5
  0
LINE
  8
0
  6
CONTINUOUS
 62
     7
 10
172.4368
 20
51.5
 11
172.4368
 21
41.5
  0
LINE
  8
0
  6
CONTINUOUS
 62
     7
 10
183.4368
 20
51.5
 11
183.4368
 21
41.5
  0
LINE
  8
0
  6
CONTINUOUS
 62
     7
 10
176.4094
 20
37.51823
 11
176.9186
 21
38.02736
  0
LINE
  8
0
  6
CONTINUOUS
 62
     7
 10
178.955
 20
34.97266
 11
179.4641
 21
35.48178
  0
LINE
  8
0
  6
CONTINUOUS
 62
     7
 10
176.4094
 20
35.48177
 11
176.9185
 21
35.99089
  0
LINE
  8
0
  6
CONTINUOUS
 62
     7
 10
176.9185
 20
34.97266
 11
177.4277
 21
35.48178
  0
LINE
  8
0
  6
CONTINUOUS
 62
     7
 10
178.955
 20
38.02737
 11
179.4642
 21
37.51826
  0
LINE
  8
0
  6
CONTINUOUS
 62
     7
 10
176.4094
 20
35.4818
 11
176.9185
 21
34.97268
  0
LINE
  8
0
  6
CONTINUOUS
 62
     7
 10
176.9186
 20
38.02736
 11
177.4277
 21
37.51825
  0
LINE
  8
0
  6
CONTINUOUS
 62
     7
 10
176.4095
 20
37.51827
 11
176.9186
 21
37.00915
  0
LINE
  8
0
  6
CONTINUOUS
 62
     7
 10
178.4459
 20
35.48181
 11
178.955
 21
34.97269
  0
LINE
  8
0
  6
CONTINUOUS
 62
     7
 10
178.955
 20
35.99089
 11
179.4642
 21
35.48178
  0
LINE
  8
0
  6
CONTINUOUS
 62
     7
 10
178.955
 20
37.00913
 11
179.4641
 21
37.51825
  0
LINE
  8
0
  6
CONTINUOUS
 62
     7
 10
178.4459
 20
37.51824
 11
178.955
 21
38.02736
  0
LINE
  8
0
  6
CENTER
 62
     2
 10
181.3368
 20
77.5
 11
181.3368
 21
49.5
  0
LINE
  8
0
  6
CONTINUOUS
 62
     7
 10
182.1868
 20
64.5
 11
182.1868
 21
59.1377
  0
LINE
  8
0
  6
CONTINUOUS
 62
     7
 10
180.4868
 20
64.5
 11
180.4868
 21
59.5932
  0
LINE
  8
0
  6
CONTINUOUS
 62
     7
 10
181.0168
 20
74.5
 11
181.0168
 21
64.5
  0
LINE
  8
0
  6
CONTINUOUS
 62
     7
 10
181.6568
 20
74.5
 11
181.6568
 21
64.5
  0
LINE
  8
0
  6
CONTINUOUS
 62
     7
 10
180.4868
 20
64.5
 11
182.1868
 21
64.5
  0
LINE
  8
0
  6
CONTINUOUS
 62
     7
 10
181.0168
 20
74.5
 11
181.6568
 21
74.5
  0
LINE
  8
0
  6
CENTER
 62
     2
 10
174.5368
 20
77.5
 11
174.5368
 21
49.5
  0
LINE
  8
0
  6
CONTINUOUS
 62
     7
 10
175.3868
 20
64.5
 11
175.3868
 21
60.95972
  0
LINE
  8
0
  6
CONTINUOUS
 62
     7
 10
173.6868
 20
64.5
 11
173.6868
 21
61.41525
  0
LINE
  8
0
  6
CONTINUOUS
 62
     7
 10
174.2168
 20
74.5
 11
174.2168
 21
64.5
  0
LINE
  8
0
  6
CONTINUOUS
 62
     7
 10
174.8568
 20
74.5
 11
174.8568
 21
64.5
  0
LINE
  8
0
  6
CONTINUOUS
 62
     7
 10
173.6868
 20
64.5
 11
175.3868
 21
64.5
  0
LINE
  8
0
  6
CONTINUOUS
 62
     7
 10
174.2168
 20
74.5
 11
174.8568
 21
74.5
  0
LINE
  8
0
  6
CENTER
 62
     2
 10
176.6868
 20
77.5
 11
176.6868
 21
49.5
  0
LINE
  8
0
  6
CONTINUOUS
 62
     7
 10
177.5368
 20
64.5
 11
177.5368
 21
60.38364
  0
LINE
  8
0
  6
CONTINUOUS
 62
     7
 10
175.8368
 20
64.5
 11
175.8368
 21
60.83914
  0
LINE
  8
0
  6
CONTINUOUS
 62
     7
 10
176.3668
 20
74.5
 11
176.3668
 21
64.5
  0
LINE
  8
0
  6
CONTINUOUS
 62
     7
 10
177.0068
 20
74.5
 11
177.0068
 21
64.5
  0
LINE
  8
0
  6
CONTINUOUS
 62
     7
 10
175.8368
 20
64.5
 11
177.5368
 21
64.5
  0
LINE
  8
0
  6
CONTINUOUS
 62
     7
 10
176.3668
 20
74.5
 11
177.0068
 21
74.5
  0
LINE
  8
0
  6
CENTER
 62
     2
 10
179.1868
 20
77.5
 11
179.1868
 21
49.5
  0
LINE
  8
0
  6
CONTINUOUS
 62
     7
 10
180.0368
 20
64.5
 11
180.0368
 21
59.71378
  0
LINE
  8
0
  6
CONTINUOUS
 62
     7
 10
178.3368
 20
64.5
 11
178.3368
 21
60.16928
  0
LINE
  8
0
  6
CONTINUOUS
 62
     7
 10
178.8668
 20
74.5
 11
178.8668
 21
64.5
  0
LINE
  8
0
  6
CONTINUOUS
 62
     7
 10
179.5068
 20
74.5
 11
179.5068
 21
64.5
  0
LINE
  8
0
  6
CONTINUOUS
 62
     7
 10
178.3368
 20
64.5
 11
180.0368
 21
64.5
  0
LINE
  8
0
  6
CONTINUOUS
 62
     7
 10
178.8668
 20
74.5
 11
179.5068
 21
74.5
  0
LINE
  8
0
  6
CONTINUOUS
 62
     7
 10
183.9368
 20
52.70001
 11
185.4368
 21
52.70001
  0
LINE
  8
0
  6
CONTINUOUS
 62
     7
 10
170.4368
 20
52.70001
 11
171.9368
 21
52.70001
  0
LINE
  8
0
  6
CENTER
 62
     2
 10
173.9368
 20
31.79999
 11
181.9368
 21
31.79999
  0
LINE
  8
0
  6
CENTER
 62
     2
 10
172.9368
 20
36.5
 11
182.9368
 21
36.5
  0
LINE
  8
0
  6
PHANTOM
 62
     2
 10
171.6867
 20
61.95109
 11
184.1868
 21
58.60173
  0
LINE
  8
0
  6
PHANTOM
 62
     2
 10
171.6867
 20
60.39819
 11
184.1867
 21
57.04882
  0
LINE
  8
0
  6
CONTINUOUS
 62
     7
 10
173.6868
 20
59.86234
 11
173.6868
 21
54.5
  0
LINE
  8
0
  6
CONTINUOUS
 62
     7
 10
175.3868
 20
59.4068
 11
175.3868
 21
54.5
  0
LINE
  8
0
  6
CONTINUOUS
 62
     7
 10
175.8368
 20
59.28622
 11
175.8368
 21
54.5
  0
LINE
  8
0
  6
CONTINUOUS
 62
     7
 10
177.5368
 20
58.83072
 11
177.5368
 21
54.5
  0
LINE
  8
0
  6
CONTINUOUS
 62
     7
 10
178.3368
 20
58.61636
 11
178.3368
 21
54.5
  0
LINE
  8
0
  6
CONTINUOUS
 62
     7
 10
180.0368
 20
58.16086
 11
180.0368
 21
54.5
  0
LINE
  8
0
  6
CONTINUOUS
 62
     7
 10
180.4868
 20
58.04028
 11
180.4868
 21
54.5
  0
LINE
  8
0
  6
CONTINUOUS
 62
     7
 10
182.1868
 20
57.58475
 11
182.1868
 21
54.5
  0
LINE
  8
0
  6
CONTINUOUS
 62
     7
 10
183.9368
 20
52.5
 11
184.9368
 21
52.5
  0
LINE
  8
0
  6
CONTINUOUS
 62
     7
 10
171.9368
 20
52.5
 11
183.9368
 21
52.5
  0
LINE
  8
0
  6
CONTINUOUS
 62
     7
 10
172.4368
 20
54.5
 11
183.4368
 21
54.5
  0
LINE
  8
0
  6
CONTINUOUS
 62
     7
 10
171.9368
 20
54.0
 11
171.9368
 21
52.5
  0
LINE
  8
0
  6
CONTINUOUS
 62
     7
 10
183.9368
 20
54.0
 11
183.9368
 21
52.5
  0
LINE
  8
0
  6
CENTER
 62
     2
 10
177.9368
 20
111.4159
 11
177.9368
 21
159.4999
  0
LINE
  8
0
  6
CENTER
 62
     2
 10
167.9884
 20
145.5
 11
187.9245
 21
145.5
  0
LINE
  8
0
  6
CONTINUOUS
 62
     7
 10
171.2068
 20
136.2
 11
170.9045
 21
136.2
  0
LINE
  8
0
  6
CONTINUOUS
 62
     7
 10
171.2069
 20
136.8
 11
170.9045
 21
136.8
  0
LINE
  8
0
  6
CONTINUOUS
 62
     7
 10
170.9287
 20
136.9608
 11
171.2345
 21
136.9608
  0
LINE
  8
0
  6
CONTINUOUS
 62
     7
 10
184.6667
 20
154.8
 11
184.9691
 21
154.8
  0
LINE
  8
0
  6
CONTINUOUS
 62
     7
 10
184.6667
 20
154.2
 11
184.9691
 21
154.2
  0
LINE
  8
0
  6
CONTINUOUS
 62
     7
 10
184.9448
 20
154.0392
 11
184.6391
 21
154.0392
  0
LINE
  8
0
  6
CONTINUOUS
 62
     7
 10
172.7014
 20
137.6031
 11
173.0691
 21
137.2354
  0
LINE
  8
0
  6
CONTINUOUS
 62
     7
 10
172.3337
 20
137.2354
 11
172.7014
 21
136.8678
  0
LINE
  8
0
  6
CONTINUOUS
 62
     7
 10
172.7014
 20
137.6031
 11
172.3337
 21
137.2354
  0
LINE
  8
0
  6
CONTINUOUS
 62
     7
 10
174.5399
 20
135.7646
 11
174.1721
 21
135.3969
  0
LINE
  8
0
  6
CONTINUOUS
 62
     7
 10
174.8332
 20
138.2642
 11
173.8044
 21
137.2354
  0
LINE
  8
0
  6
CONTINUOUS
 62
     7
 10
175.201
 20
137.8965
 11
174.1721
 21
136.8677
  0
LINE
  8
0
  6
CONTINUOUS
 62
     7
 10
174.1722
 20
136.1323
 11
174.5399
 21
135.7646
  0
LINE
  8
0
  6
CONTINUOUS
 62
     7
 10
173.8045
 20
135.7647
 11
174.1722
 21
135.397
  0
LINE
  8
0
  6
CONTINUOUS
 62
     7
 10
172.7014
 20
136.1323
 11
171.6726
 21
135.1035
  0
LINE
  8
0
  6
CONTINUOUS
 62
     7
 10
173.0691
 20
135.7646
 11
172.0403
 21
134.7358
  0
LINE
  8
0
  6
CONTINUOUS
 62
     7
 10
181.7014
 20
155.6031
 11
182.0691
 21
155.2354
  0
LINE
  8
0
  6
CONTINUOUS
 62
     7
 10
181.3338
 20
155.2354
 11
181.7014
 21
154.8677
  0
LINE
  8
0
  6
CONTINUOUS
 62
     7
 10
181.7014
 20
155.6032
 11
181.3336
 21
155.2354
  0
LINE
  8
0
  6
CONTINUOUS
 62
     7
 10
183.5399
 20
153.7646
 11
183.1722
 21
153.3969
  0
LINE
  8
0
  6
CONTINUOUS
 62
     7
 10
183.8332
 20
156.2642
 11
182.8044
 21
155.2354
  0
LINE
  8
0
  6
CONTINUOUS
 62
     7
 10
184.2009
 20
155.8965
 11
183.1721
 21
154.8677
  0
LINE
  8
0
  6
CONTINUOUS
 62
     7
 10
183.1722
 20
154.1324
 11
183.5399
 21
153.7646
  0
LINE
  8
0
  6
CONTINUOUS
 62
     7
 10
182.8045
 20
153.7646
 11
183.1722
 21
153.397
  0
LINE
  8
0
  6
CONTINUOUS
 62
     7
 10
181.7013
 20
154.1323
 11
180.6725
 21
153.1036
  0
LINE
  8
0
  6
CONTINUOUS
 62
     7
 10
182.0691
 20
153.7646
 11
181.0403
 21
152.7358
  0
LINE
  8
0
  6
CENTER
 62
     2
 10
177.4368
 20
136.5
 11
169.4368
 21
136.5
  0
LINE
  8
0
  6
CENTER
 62
     2
 10
186.4368
 20
154.5
 11
178.4368
 21
154.5
  0
LINE
  8
0
  6
CENTER
 62
     2
 10
182.4368
 20
158.5
 11
182.4368
 21
150.5
  0
LINE
  8
0
  6
CENTER
 62
     2
 10
173.4368
 20
140.5
 11
173.4368
 21
132.5
  0
LINE
  8
0
  6
CONTINUOUS
 62
     7
 10
185.4368
 20
157.0
 11
185.4368
 21
114.0
  0
LINE
  8
0
  6
CONTINUOUS
 62
     7
 10
184.9368
 20
157.5
 11
170.9368
 21
157.5
  0
LINE
  8
0
  6
CONTINUOUS
 62
     7
 10
170.4368
 20
157.0
 11
170.4368
 21
114.0
  0
LINE
  8
0
  6
CONTINUOUS
 62
     7
 10
184.9368
 20
113.5
 11
170.9368
 21
113.5
  0
LINE
  8
0
  6
CONTINUOUS
 62
     7
 10
185.4368
 20
132.5
 11
183.9368
 21
132.5
  0
LINE
  8
0
  6
CONTINUOUS
 62
     7
 10
182.4368
 20
151.8
 11
185.4368
 21
151.8
  0
LINE
  8
0
  6
CONTINUOUS
 62
     7
 10
173.4368
 20
139.2
 11
170.4368
 21
139.2
  0
LINE
  8
0
  6
CONTINUOUS
 62
     7
 10
173.4368
 20
133.8
 11
170.4368
 21
133.8
  0
LINE
  8
0
  6
CONTINUOUS
 62
     7
 10
179.7368
 20
154.5
 11
179.7368
 21
157.5
  0
LINE
  8
0
  6
CENTER
 62
     2
 10
181.3368
 20
132.0
 11
181.3368
 21
129.0
  0
LINE
  8
0
  6
CENTER
 62
     2
 10
179.1868
 20
132.0
 11
179.1868
 21
129.0
  0
LINE
  8
0
  6
CENTER
 62
     2
 10
176.6868
 20
132.0
 11
176.6868
 21
129.0
  0
LINE
  8
0
  6
CENTER
 62
     2
 10
174.5368
 20
132.0
 11
174.5368
 21
129.0
  0
LINE
  8
0
  6
CENTER
 62
     2
 10
184.9368
 20
130.5
 11
170.9368
 21
130.5
  0
LINE
  8
0
  6
CONTINUOUS
 62
     7
 10
171.9368
 20
132.5
 11
170.4368
 21
132.5
  0
LINE
  8
0
  6
CONTINUOUS
 62
     7
 10
183.9368
 20
132.5
 11
171.9368
 21
132.5
  0
LINE
  8
0
  6
CONTINUOUS
 62
     7
 10
183.9368
 20
132.5
 11
183.9368
 21
129.5
  0
LINE
  8
0
  6
CONTINUOUS
 62
     7
 10
181.9368
 20
127.5
 11
173.9368
 21
127.5
  0
LINE
  8
0
  6
CONTINUOUS
 62
     7
 10
171.9368
 20
132.5
 11
171.9368
 21
129.5
  0
LINE
  8
0
  6
CONTINUOUS
 62
     7
 10
22.4368
 20
5.0
 11
46.4368
 21
5.0
  0
LINE
  8
0
  6
CENTER
 62
     2
 10
34.4368
 20
55.0
 11
34.4368
 21
-32.56096
  0
LINE
  8
0
  6
CENTER
 62
     2
 10
42.03232
 20
0.0
 11
47.26236
 21
0.0
  0
LINE
  8
0
  6
CONTINUOUS
 62
     7
 10
43.4368
 20
1.81381
 11
43.4368
 21
-1.81384
  0
LINE
  8
0
  6
CONTINUOUS
 62
     7
 10
43.4368
 20
1.81384
 11
46.4368
 21
1.81384
  0
LINE
  8
0
  6
CONTINUOUS
 62
     7
 10
43.4368
 20
-1.81384
 11
46.4368
 21
-1.81384
  0
LINE
  8
0
  6
CONTINUOUS
 62
     7
 10
22.4368
 20
22.0
 11
22.4368
 21
-30.0
  0
LINE
  8
0
  6
CONTINUOUS
 62
     7
 10
46.4368
 20
22.0
 11
46.4368
 21
-30.0
  0
LINE
  8
0
  6
CONTINUOUS
 62
     7
 10
22.4368
 20
-23.0
 11
46.4368
 21
-23.0
  0
LINE
  8
0
  6
CONTINUOUS
 62
     7
 10
22.9368
 20
-30.5
 11
45.9368
 21
-30.5
  0
LINE
  8
0
  6
CONTINUOUS
 62
     7
 10
40.73679
 20
-25.5
 11
45.9368
 21
-25.5
  0
LINE
  8
0
  6
CENTER
 62
     2
 10
43.4368
 20
-23.70001
 11
43.4368
 21
-33.15001
  0
LINE
  8
0
  6
CONTINUOUS
 62
     7
 10
40.23679
 20
-26.0
 11
40.23679
 21
-30.0
  0
LINE
  8
0
  6
CONTINUOUS
 62
     7
 10
40.63678
 20
-26.67183
 11
40.63678
 21
-25.5
  0
LINE
  8
0
  6
CONTINUOUS
 62
     7
 10
46.23677
 20
-26.67183
 11
46.23677
 21
-25.5
  0
LINE
  8
0
  6
CONTINUOUS
 62
     7
 10
22.43678
 20
47.20001
 11
47.43678
 21
47.20001
  0
LINE
  8
0
  6
CONTINUOUS
 62
     7
 10
22.4368
 20
22.0
 11
65.93679
 21
22.0
  0
LINE
  8
0
  6
CONTINUOUS
 62
     7
 10
22.4368
 20
52.70001
 11
22.4368
 21
22.0
  0
LINE
  8
0
  6
CONTINUOUS
 62
     7
 10
46.4368
 20
47.20001
 11
46.4368
 21
22.0
  0
LINE
  8
0
  6
CONTINUOUS
 62
     7
 10
40.73679
 20
48.20001
 11
46.13678
 21
48.20001
  0
LINE
  8
0
  6
CENTER
 62
     2
 10
43.4368
 20
55.70001
 11
43.4368
 21
44.20001
  0
LINE
  8
0
  6
CONTINUOUS
 62
     7
 10
45.98679
 20
48.79999
 11
40.88678
 21
48.79999
  0
LINE
  8
0
  6
CONTINUOUS
 62
     7
 10
43.1368
 20
48.2
 11
42.97603
 21
48.79999
  0
LINE
  8
0
  6
CONTINUOUS
 62
     7
 10
43.7368
 20
48.80001
 11
43.89757
 21
48.20002
  0
LINE
  8
0
  6
CONTINUOUS
 62
     7
 10
45.98679
 20
48.79999
 11
45.98679
 21
48.20001
  0
LINE
  8
0
  6
CONTINUOUS
 62
     7
 10
40.8868
 20
48.79999
 11
40.8868
 21
48.20001
  0
LINE
  8
0
  6
CONTINUOUS
 62
     7
 10
45.6868
 20
49.49374
 11
45.6868
 21
48.79999
  0
LINE
  8
0
  6
CONTINUOUS
 62
     7
 10
41.1868
 20
49.49374
 11
41.1868
 21
48.79999
  0
LINE
  8
0
  6
CENTER
 62
     2
 10
25.4368
 20
55.70001
 11
25.4368
 21
44.20001
  0
LINE
  8
0
  6
CONTINUOUS
 62
     7
 10
66.43679
 20
52.0
 11
66.43679
 21
22.5
  0
LINE
  8
0
  6
CONTINUOUS
 62
     7
 10
46.43678
 20
47.0
 11
47.43678
 21
47.0
  0
LINE
  8
0
  6
CONTINUOUS
 62
     7
 10
47.4368
 20
47.0
 11
47.4368
 21
52.5
  0
LINE
  8
0
  6
CONTINUOUS
 62
     7
 10
22.43678
 20
52.70001
 11
47.43678
 21
52.70001
  0
LINE
  8
0
  6
CONTINUOUS
 62
     7
 10
40.73679
 20
52.70001
 11
40.73679
 21
48.20001
  0
LINE
  8
0
  6
CONTINUOUS
 62
     7
 10
46.1368
 20
52.70001
 11
46.1368
 21
48.20001
  0
LINE
  8
0
  6
CENTER
 62
     2
 10
49.4368
 20
77.5
 11
49.4368
 21
49.5
  0
LINE
  8
0
  6
CONTINUOUS
 62
     7
 10
50.28679
 20
64.5
 11
50.28679
 21
60.04871
  0
LINE
  8
0
  6
CONTINUOUS
 62
     7
 10
48.58679
 20
64.5
 11
48.58679
 21
60.50421
  0
LINE
  8
0
  6
CONTINUOUS
 62
     7
 10
49.11679
 20
74.5
 11
49.11679
 21
64.5
  0
LINE
  8
0
  6
CONTINUOUS
 62
     7
 10
49.75679
 20
74.5
 11
49.75679
 21
64.5
  0
LINE
  8
0
  6
CONTINUOUS
 62
     7
 10
48.58678
 20
64.5
 11
50.28677
 21
64.5
  0
LINE
  8
0
  6
CONTINUOUS
 62
     7
 10
49.11678
 20
74.5
 11
49.75677
 21
74.5
  0
LINE
  8
0
  6
PHANTOM
 62
     2
 10
46.58676
 20
59.48715
 11
52.28675
 21
57.95984
  0
LINE
  8
0
  6
PHANTOM
 62
     2
 10
46.58675
 20
61.04007
 11
52.28675
 21
59.51276
  0
LINE
  8
0
  6
CONTINUOUS
 62
     7
 10
48.58679
 20
58.95129
 11
48.58679
 21
54.5
  0
LINE
  8
0
  6
CONTINUOUS
 62
     7
 10
50.28679
 20
58.49579
 11
50.28679
 21
54.5
  0
LINE
  8
0
  6
CONTINUOUS
 62
     7
 10
52.43678
 20
52.5
 11
65.93678
 21
52.5
  0
LINE
  8
0
  6
CONTINUOUS
 62
     7
 10
47.4368
 20
52.5
 11
47.4368
 21
54.5
  0
LINE
  8
0
  6
CONTINUOUS
 62
     7
 10
47.43678
 20
52.5
 11
52.43678
 21
52.5
  0
LINE
  8
0
  6
CONTINUOUS
 62
     7
 10
52.4368
 20
52.5
 11
52.4368
 21
54.0
  0
LINE
  8
0
  6
CONTINUOUS
 62
     7
 10
47.43678
 20
54.5
 11
51.93678
 21
54.5
  0
LINE
  8
0
  6
CONTINUOUS
 62
     7
 10
332.4367
 20
5.0
 11
308.4367
 21
5.0
  0
LINE
  8
0
  6
CENTER
 62
     2
 10
320.4367
 20
54.9946
 11
320.4367
 21
-35.94983
  0
LINE
  8
0
  6
CENTER
 62
     2
 10
312.8412
 20
-18.0
 11
307.6112
 21
-18.0
  0
LINE
  8
0
  6
CONTINUOUS
 62
     7
 10
311.4367
 20
-16.18617
 11
311.4367
 21
-19.81384
  0
LINE
  8
0
  6
CONTINUOUS
 62
     7
 10
311.4367
 20
-16.18616
 11
308.4367
 21
-16.18616
  0
LINE
  8
0
  6
CONTINUOUS
 62
     7
 10
311.4367
 20
-19.81384
 11
308.4367
 21
-19.81384
  0
LINE
  8
0
  6
CONTINUOUS
 62
     7
 10
308.4367
 20
22.0
 11
308.4367
 21
-30.0
  0
LINE
  8
0
  6
CONTINUOUS
 62
     7
 10
332.4367
 20
22.0
 11
332.4367
 21
-30.0
  0
LINE
  8
0
  6
CONTINUOUS
 62
     7
 10
308.9367
 20
-30.5
 11
331.9367
 21
-30.5
  0
LINE
  8
0
  6
CONTINUOUS
 62
     7
 10
326.7367
 20
-25.5
 11
331.9367
 21
-25.5
  0
LINE
  8
0
  6
CENTER
 62
     2
 10
329.4367
 20
-23.70001
 11
329.4367
 21
-33.15001
  0
LINE
  8
0
  6
CONTINUOUS
 62
     7
 10
326.2367
 20
-26.0
 11
326.2367
 21
-30.0
  0
LINE
  8
0
  6
CONTINUOUS
 62
     7
 10
326.6367
 20
-26.67183
 11
326.6367
 21
-25.5
  0
LINE
  8
0
  6
CONTINUOUS
 62
     7
 10
332.2367
 20
-26.67183
 11
332.2367
 21
-25.5
  0
LINE
  8
0
  6
CONTINUOUS
 62
     7
 10
332.4367
 20
47.20001
 11
307.4367
 21
47.20001
  0
LINE
  8
0
  6
CONTINUOUS
 62
     7
 10
332.4367
 20
22.0
 11
288.9367
 21
22.0
  0
LINE
  8
0
  6
CONTINUOUS
 62
     7
 10
332.4367
 20
52.70001
 11
332.4367
 21
22.0
  0
LINE
  8
0
  6
CONTINUOUS
 62
     7
 10
308.4367
 20
47.20001
 11
308.4367
 21
22.0
  0
LINE
  8
0
  6
CENTER
 62
     2
 10
329.4367
 20
55.70001
 11
329.4367
 21
44.20001
  0
LINE
  8
0
  6
CONTINUOUS
 62
     7
 10
331.9867
 20
48.79999
 11
326.8867
 21
48.79999
  0
LINE
  8
0
  6
CONTINUOUS
 62
     7
 10
329.1367
 20
48.19998
 11
328.9759
 21
48.79998
  0
LINE
  8
0
  6
CONTINUOUS
 62
     7
 10
329.7367
 20
48.79998
 11
329.8974
 21
48.19999
  0
LINE
  8
0
  6
CONTINUOUS
 62
     7
 10
331.9867
 20
48.79999
 11
331.9867
 21
48.20001
  0
LINE
  8
0
  6
CONTINUOUS
 62
     7
 10
326.8867
 20
48.79999
 11
326.8867
 21
48.20001
  0
LINE
  8
0
  6
CONTINUOUS
 62
     7
 10
331.6867
 20
49.49374
 11
331.6867
 21
48.79999
  0
LINE
  8
0
  6
CONTINUOUS
 62
     7
 10
327.1867
 20
49.49374
 11
327.1867
 21
48.79999
  0
LINE
  8
0
  6
CENTER
 62
     2
 10
311.4367
 20
55.70001
 11
311.4367
 21
44.20001
  0
LINE
  8
0
  6
CONTINUOUS
 62
     7
 10
288.4367
 20
52.0
 11
288.4367
 21
22.5
  0
LINE
  8
0
  6
CONTINUOUS
 62
     7
 10
302.4367
 20
52.5
 11
288.9367
 21
52.5
  0
LINE
  8
0
  6
CONTINUOUS
 62
     7
 10
307.4367
 20
47.0
 11
307.4367
 21
52.5
  0
LINE
  8
0
  6
CONTINUOUS
 62
     7
 10
332.4367
 20
52.70001
 11
307.4367
 21
52.70001
  0
LINE
  8
0
  6
CONTINUOUS
 62
     7
 10
326.7367
 20
52.70001
 11
326.7367
 21
48.20001
  0
LINE
  8
0
  6
CENTER
 62
     2
 10
305.4367
 20
77.5
 11
305.4367
 21
49.5
  0
LINE
  8
0
  6
CONTINUOUS
 62
     7
 10
304.5867
 20
64.5
 11
304.5867
 21
61.23334
  0
LINE
  8
0
  6
CONTINUOUS
 62
     7
 10
306.2867
 20
64.5
 11
306.2867
 21
60.04871
  0
LINE
  8
0
  6
CONTINUOUS
 62
     7
 10
305.7567
 20
74.5
 11
305.7567
 21
64.5
  0
LINE
  8
0
  6
CONTINUOUS
 62
     7
 10
305.1167
 20
74.5
 11
305.1167
 21
64.5
  0
LINE
  8
0
  6
CONTINUOUS
 62
     7
 10
306.2867
 20
64.5
 11
304.5867
 21
64.5
  0
LINE
  8
0
  6
CONTINUOUS
 62
     7
 10
305.7567
 20
74.5
 11
305.1167
 21
74.5
  0
LINE
  8
0
  6
CONTINUOUS
 62
     7
 10
326.7367
 20
48.20001
 11
332.4367
 21
48.20001
  0
LINE
  8
0
  6
CONTINUOUS
 62
     7
 10
307.4367
 20
47.0
 11
308.4367
 21
47.0
  0
LINE
  8
0
  6
PHANTOM
 62
     2
 10
302.5867
 20
61.04003
 11
308.2867
 21
59.51272
  0
LINE
  8
0
  6
PHANTOM
 62
     2
 10
302.5867
 20
59.48716
 11
308.2867
 21
57.95985
  0
LINE
  8
0
  6
CONTINUOUS
 62
     7
 10
304.5867
 20
58.95129
 11
304.5867
 21
54.5
  0
LINE
  8
0
  6
CONTINUOUS
 62
     7
 10
306.2867
 20
58.49579
 11
306.2867
 21
54.5
  0
LINE
  8
0
  6
CONTINUOUS
 62
     7
 10
307.4367
 20
52.5
 11
307.4367
 21
54.5
  0
LINE
  8
0
  6
CONTINUOUS
 62
     7
 10
307.4367
 20
52.5
 11
302.4367
 21
52.5
  0
LINE
  8
0
  6
CONTINUOUS
 62
     7
 10
302.4367
 20
52.5
 11
302.4367
 21
54.0
  0
LINE
  8
0
  6
CONTINUOUS
 62
     7
 10
307.4367
 20
54.5
 11
302.9367
 21
54.5
  0
LINE
  8
0
  6
CONTINUOUS
 62
     7
 10
170.4368
 20
-129.7
 11
173.4368
 21
-129.7
  0
LINE
  8
0
  6
CONTINUOUS
 62
     7
 10
182.4368
 20
-141.3
 11
185.4368
 21
-141.3
  0
LINE
  8
0
  6
CONTINUOUS
 62
     7
 10
176.6368
 20
-126.5
 11
176.6368
 21
-123.5
  0
LINE
  8
0
  6
CONTINUOUS
 62
     7
 10
179.2368
 20
-144.5
 11
179.2368
 21
-147.5
  0
LINE
  8
0
  6
CENTER
 62
     2
 10
168.9368
 20
-135.5
 11
186.9368
 21
-135.5
  0
LINE
  8
0
  6
CENTER
 62
     2
 10
177.9368
 20
-101.8614
 11
177.9368
 21
-149.5
  0
LINE
  8
0
  6
CONTINUOUS
 62
     7
 10
171.4368
 20
-133.5
 11
184.4368
 21
-133.5
  0
LINE
  8
0
  6
CONTINUOUS
 62
     7
 10
171.4368
 20
-137.5
 11
184.4368
 21
-137.5
  0
LINE
  8
0
  6
CONTINUOUS
 62
     7
 10
184.4368
 20
-133.5
 11
184.4368
 21
-137.5
  0
LINE
  8
0
  6
CONTINUOUS
 62
     7
 10
171.4368
 20
-133.5
 11
171.4368
 21
-137.5
  0
LINE
  8
0
  6
CONTINUOUS
 62
     7
 10
172.1488
 20
-136.4698
 11
174.1371
 21
-136.4698
  0
LINE
  8
0
  6
CONTINUOUS
 62
     7
 10
172.1488
 20
-137.0
 11
174.844
 21
-137.0
  0
LINE
  8
0
  6
CONTINUOUS
 62
     7
 10
172.1488
 20
-134.9234
 11
174.1371
 21
-134.9234
  0
LINE
  8
0
  6
CONTINUOUS
 62
     7
 10
172.1489
 20
-134.3932
 11
172.1489
 21
-134.9234
  0
LINE
  8
0
  6
CONTINUOUS
 62
     7
 10
174.844
 20
-134.7467
 11
174.844
 21
-137.0
  0
LINE
  8
0
  6
CONTINUOUS
 62
     7
 10
174.1371
 20
-134.9234
 11
174.1371
 21
-136.4698
  0
LINE
  8
0
  6
CONTINUOUS
 62
     7
 10
175.2416
 20
-134.3932
 11
175.2416
 21
-134.9234
  0
LINE
  8
0
  6
CONTINUOUS
 62
     7
 10
177.7601
 20
-134.9234
 11
177.7601
 21
-136.6465
  0
LINE
  8
0
  6
CONTINUOUS
 62
     7
 10
177.0531
 20
-134.9234
 11
177.0531
 21
-136.4698
  0
LINE
  8
0
  6
CONTINUOUS
 62
     7
 10
172.1489
 20
-136.4698
 11
172.1489
 21
-137.0
  0
LINE
  8
0
  6
CONTINUOUS
 62
     7
 10
175.2416
 20
-134.3932
 11
175.9401
 21
-134.3932
  0
LINE
  8
0
  6
CONTINUOUS
 62
     7
 10
175.2416
 20
-137.0
 11
175.7905
 21
-137.0
  0
LINE
  8
0
  6
CONTINUOUS
 62
     7
 10
175.2417
 20
-137.0
 11
175.7981
 21
-134.9235
  0
LINE
  8
0
  6
CONTINUOUS
 62
     7
 10
175.2416
 20
-134.9234
 11
175.7981
 21
-134.9234
  0
LINE
  8
0
  6
CONTINUOUS
 62
     7
 10
175.7906
 20
-137.0
 11
176.347
 21
-134.9235
  0
LINE
  8
0
  6
CONTINUOUS
 62
     7
 10
176.5229
 20
-136.4698
 11
177.0531
 21
-136.4698
  0
LINE
  8
0
  6
CONTINUOUS
 62
     7
 10
176.5229
 20
-136.4698
 11
176.665
 21
-137.0
  0
LINE
  8
0
  6
CONTINUOUS
 62
     7
 10
176.665
 20
-137.0
 11
177.4066
 21
-137.0
  0
LINE
  8
0
  6
CONTINUOUS
 62
     7
 10
176.347
 20
-134.9234
 11
177.0531
 21
-134.9234
  0
LINE
  8
0
  6
CONTINUOUS
 62
     7
 10
176.489
 20
-134.3932
 11
177.2298
 21
-134.3932
  0
LINE
  8
0
  6
CONTINUOUS
 62
     7
 10
175.9403
 20
-134.3932
 11
176.0457
 21
-134.0
  0
LINE
  8
0
  6
CONTINUOUS
 62
     7
 10
176.489
 20
-134.3932
 11
176.5944
 21
-134.0
  0
LINE
  8
0
  6
CONTINUOUS
 62
     7
 10
178.2019
 20
-134.3932
 11
179.0414
 21
-134.3932
  0
LINE
  8
0
  6
CONTINUOUS
 62
     7
 10
178.2019
 20
-134.9234
 11
180.2636
 21
-134.9234
  0
LINE
  8
0
  6
CONTINUOUS
 62
     7
 10
179.0414
 20
-137.0
 11
179.7483
 21
-137.0
  0
LINE
  8
0
  6
CONTINUOUS
 62
     7
 10
178.2019
 20
-134.3932
 11
178.2019
 21
-134.9234
  0
LINE
  8
0
  6
CONTINUOUS
 62
     7
 10
180.8087
 20
-135.8848
 11
180.8087
 21
-136.4698
  0
LINE
  8
0
  6
CONTINUOUS
 62
     7
 10
178.2019
 20
-136.4699
 11
179.0414
 21
-136.0784
  0
LINE
  8
0
  6
CONTINUOUS
 62
     7
 10
178.2019
 20
-135.8849
 11
180.2636
 21
-134.9235
  0
LINE
  8
0
  6
CONTINUOUS
 62
     7
 10
178.2019
 20
-135.8848
 11
178.2019
 21
-136.4698
  0
LINE
  8
0
  6
CONTINUOUS
 62
     7
 10
179.7482
 20
-135.9753
 11
180.8087
 21
-136.4698
  0
LINE
  8
0
  6
CONTINUOUS
 62
     7
 10
180.1326
 20
-135.5695
 11
180.8087
 21
-135.8848
  0
LINE
  8
0
  6
CONTINUOUS
 62
     7
 10
180.8087
 20
-134.7467
 11
180.8087
 21
-135.0291
  0
LINE
  8
0
  6
CONTINUOUS
 62
     7
 10
179.0414
 20
-134.0
 11
179.0414
 21
-134.3932
  0
LINE
  8
0
  6
CONTINUOUS
 62
     7
 10
179.7483
 20
-134.0
 11
179.7483
 21
-134.3932
  0
LINE
  8
0
  6
CONTINUOUS
 62
     7
 10
179.7483
 20
-134.3932
 11
180.4552
 21
-134.3932
  0
LINE
  8
0
  6
CONTINUOUS
 62
     7
 10
179.0414
 20
-136.0784
 11
179.0414
 21
-137.0
  0
LINE
  8
0
  6
CONTINUOUS
 62
     7
 10
179.7483
 20
-135.9753
 11
179.7483
 21
-137.0
  0
LINE
  8
0
  6
CONTINUOUS
 62
     7
 10
180.1326
 20
-135.5696
 11
180.6046
 21
-135.3495
  0
LINE
  8
0
  6
CONTINUOUS
 62
     7
 10
183.1945
 20
-134.1591
 11
183.7247
 21
-134.1591
  0
LINE
  8
0
  6
CONTINUOUS
 62
     7
 10
181.0296
 20
-135.2542
 11
181.0296
 21
-135.8248
  0
LINE
  8
0
  6
CONTINUOUS
 62
     7
 10
183.7247
 20
-134.159
 11
183.7247
 21
-134.3932
  0
LINE
  8
0
  6
CONTINUOUS
 62
     7
 10
183.1945
 20
-134.159
 11
183.1945
 21
-134.2733
  0
LINE
  8
0
  6
CONTINUOUS
 62
     7
 10
182.4876
 20
-135.2449
 11
182.4876
 21
-137.0
  0
LINE
  8
0
  6
CONTINUOUS
 62
     7
 10
181.0297
 20
-135.2543
 11
183.0832
 21
-134.4375
  0
LINE
  8
0
  6
CONTINUOUS
 62
     7
 10
181.0296
 20
-135.8248
 11
182.4876
 21
-135.2449
  0
LINE
  8
0
  6
CONTINUOUS
 62
     7
 10
182.4876
 20
-137.0
 11
183.1945
 21
-137.0
  0
LINE
  8
0
  6
CONTINUOUS
 62
     7
 10
183.1945
 20
-134.9638
 11
183.1945
 21
-137.0
  0
LINE
  8
0
  6
CONTINUOUS
 62
     7
 10
183.1945
 20
-134.9638
 11
183.3905
 21
-134.8859
  0
LINE
  8
0
  6
CONTINUOUS
 62
     7
 10
176.0455
 20
-134.0
 11
176.5944
 21
-134.0
  0
LINE
  8
0
  6
CONTINUOUS
 62
     7
 10
177.4729
 20
-134.0
 11
177.6989
 21
-134.0
  0
LINE
  8
0
  6
CONTINUOUS
 62
     7
 10
179.0414
 20
-134.0
 11
179.7483
 21
-134.0
  0
LINE
  8
0
  6
CONTINUOUS
 62
     7
 10
177.4729
 20
-134.3535
 11
177.6989
 21
-134.3535
  0
LINE
  8
0
  6
CONTINUOUS
 62
     7
 10
177.4729
 20
-134.0
 11
177.4729
 21
-134.3535
  0
LINE
  8
0
  6
CONTINUOUS
 62
     7
 10
177.6989
 20
-134.0
 11
177.6989
 21
-134.3535
  0
LINE
  8
0
  6
CONTINUOUS
 62
     7
 10
177.8566
 20
-134.0
 11
177.8566
 21
-134.3535
  0
LINE
  8
0
  6
CONTINUOUS
 62
     7
 10
178.0826
 20
-134.0
 11
178.0826
 21
-134.3535
  0
LINE
  8
0
  6
CONTINUOUS
 62
     7
 10
177.8566
 20
-134.0
 11
178.0826
 21
-134.0
  0
LINE
  8
0
  6
CONTINUOUS
 62
     7
 10
177.8566
 20
-134.3535
 11
178.0826
 21
-134.3535
  0
LINE
  8
0
  6
CONTINUOUS
 62
     7
 10
185.4368
 20
-147.0
 11
185.4368
 21
-123.5
  0
LINE
  8
0
  6
CONTINUOUS
 62
     7
 10
170.4368
 20
-147.0
 11
170.4368
 21
-123.5
  0
LINE
  8
0
  6
CONTINUOUS
 62
     7
 10
170.9368
 20
-147.5
 11
184.9368
 21
-147.5
  0
LINE
  8
0
  6
CONTINUOUS
 62
     7
 10
170.4368
 20
-123.5
 11
185.4368
 21
-123.5
  0
LINE
  8
0
  6
CONTINUOUS
 62
     7
 10
172.1488
 20
-134.3932
 11
174.4905
 21
-134.3932
  0
LINE
  8
0
  6
CONTINUOUS
 62
     7
 10
177.7601
 20
-134.9234
 11
177.7601
 21
-136.6465
  0
LINE
  8
0
  6
CONTINUOUS
 62
     7
 10
176.665
 20
-137.0
 11
177.4066
 21
-137.0
  0
LINE
  8
0
  6
CONTINUOUS
 62
     7
 10
176.489
 20
-134.3932
 11
177.2298
 21
-134.3932
  0
LINE
  8
0
  6
CONTINUOUS
 62
     7
 10
180.8087
 20
-134.7467
 11
180.8087
 21
-135.0291
  0
LINE
  8
0
  6
CONTINUOUS
 62
     7
 10
183.1945
 20
-134.1591
 11
183.7247
 21
-134.1591
  0
LINE
  8
0
  6
CONTINUOUS
 62
     7
 10
183.7247
 20
-134.159
 11
183.7247
 21
-134.3932
  0
LINE
  8
0
  6
CONTINUOUS
 62
     7
 10
183.1945
 20
-134.159
 11
183.1945
 21
-134.2733
  0
LINE
  8
0
  6
CONTINUOUS
 62
     7
 10
181.0297
 20
-135.2543
 11
183.0832
 21
-134.4375
  0
LINE
  8
0
  6
CONTINUOUS
 62
     7
 10
183.1945
 20
-134.9638
 11
183.1945
 21
-137.0
  0
LINE
  8
0
  6
CONTINUOUS
 62
     7
 10
183.1945
 20
-134.9637
 11
183.3904
 21
-134.8858
  0
LINE
  8
0
  6
CENTER
 62
     2
 10
173.4368
 20
-130.679
 11
173.4368
 21
-122.3321
  0
LINE
  8
0
  6
CENTER
 62
     2
 10
169.4045
 20
-126.5
 11
177.3465
 21
-126.5
  0
LINE
  8
0
  6
CONTINUOUS
 62
     7
 10
172.5883
 20
-127.7728
 11
172.164
 21
-127.3485
  0
LINE
  8
0
  6
CONTINUOUS
 62
     7
 10
174.7096
 20
-125.6515
 11
174.2854
 21
-125.2272
  0
LINE
  8
0
  6
CONTINUOUS
 62
     7
 10
174.2854
 20
-127.7728
 11
173.8611
 21
-127.3485
  0
LINE
  8
0
  6
CONTINUOUS
 62
     7
 10
174.7096
 20
-127.3485
 11
174.2854
 21
-126.9242
  0
LINE
  8
0
  6
CONTINUOUS
 62
     7
 10
174.2854
 20
-127.7728
 11
174.7096
 21
-127.3486
  0
LINE
  8
0
  6
CONTINUOUS
 62
     7
 10
172.164
 20
-125.6515
 11
172.5883
 21
-125.2273
  0
LINE
  8
0
  6
CONTINUOUS
 62
     7
 10
172.5883
 20
-127.7728
 11
173.0126
 21
-127.3486
  0
LINE
  8
0
  6
CONTINUOUS
 62
     7
 10
172.1641
 20
-127.3486
 11
172.5883
 21
-126.9243
  0
LINE
  8
0
  6
CONTINUOUS
 62
     7
 10
172.5883
 20
-126.0757
 11
172.1641
 21
-125.6515
  0
LINE
  8
0
  6
CONTINUOUS
 62
     7
 10
173.0126
 20
-125.6515
 11
172.5883
 21
-125.2272
  0
LINE
  8
0
  6
CONTINUOUS
 62
     7
 10
174.2854
 20
-126.0758
 11
174.7096
 21
-125.6515
  0
LINE
  8
0
  6
CONTINUOUS
 62
     7
 10
173.8611
 20
-125.6515
 11
174.2854
 21
-125.2273
  0
LINE
  8
0
  6
CENTER
 62
     2
 10
182.4368
 20
-148.679
 11
182.4368
 21
-140.3321
  0
LINE
  8
0
  6
CENTER
 62
     2
 10
178.4045
 20
-144.5
 11
186.3465
 21
-144.5
  0
LINE
  8
0
  6
CONTINUOUS
 62
     7
 10
181.5883
 20
-145.7728
 11
181.164
 21
-145.3485
  0
LINE
  8
0
  6
CONTINUOUS
 62
     7
 10
183.7096
 20
-143.6515
 11
183.2854
 21
-143.2272
  0
LINE
  8
0
  6
CONTINUOUS
 62
     7
 10
183.2854
 20
-145.7728
 11
182.8611
 21
-145.3485
  0
LINE
  8
0
  6
CONTINUOUS
 62
     7
 10
183.7096
 20
-145.3485
 11
183.2854
 21
-144.9243
  0
LINE
  8
0
  6
CONTINUOUS
 62
     7
 10
183.2854
 20
-145.7728
 11
183.7096
 21
-145.3486
  0
LINE
  8
0
  6
CONTINUOUS
 62
     7
 10
181.1641
 20
-143.6515
 11
181.5883
 21
-143.2272
  0
LINE
  8
0
  6
CONTINUOUS
 62
     7
 10
181.5883
 20
-145.7728
 11
182.0126
 21
-145.3486
  0
LINE
  8
0
  6
CONTINUOUS
 62
     7
 10
181.1641
 20
-145.3486
 11
181.5883
 21
-144.9243
  0
LINE
  8
0
  6
CONTINUOUS
 62
     7
 10
181.5883
 20
-144.0757
 11
181.164
 21
-143.6515
  0
LINE
  8
0
  6
CONTINUOUS
 62
     7
 10
182.0126
 20
-143.6515
 11
181.5883
 21
-143.2272
  0
LINE
  8
0
  6
CONTINUOUS
 62
     7
 10
183.2854
 20
-144.0758
 11
183.7097
 21
-143.6515
  0
LINE
  8
0
  6
CONTINUOUS
 62
     7
 10
182.8611
 20
-143.6515
 11
183.2854
 21
-143.2273
  0
LINE
  8
0
  6
CONTINUOUS
 62
     7
 10
185.4368
 20
-123.5
 11
185.4368
 21
-104.0
  0
LINE
  8
0
  6
CONTINUOUS
 62
     7
 10
170.4368
 20
-123.5
 11
170.4368
 21
-104.0
  0
LINE
  8
0
  6
CONTINUOUS
 62
     7
 10
170.4368
 20
-123.5
 11
185.4368
 21
-123.5
  0
LINE
  8
0
  6
CONTINUOUS
 62
     7
 10
170.9368
 20
-103.5
 11
184.9368
 21
-103.5
  0
ARC
  8
0
  6
CONTINUOUS
 62
     7
 10
273.0354
 20
-235.0457
 40
2.21188
 50
0.0
 51
89.99999
  0
ARC
  8
0
  6
CONTINUOUS
 62
     7
 10
291.2836
 20
-246.9346
 40
2.2119
 50
270.0
 51
0.0
  0
ARC
  8
0
  6
CONTINUOUS
 62
     7
 10
290.1776
 20
-236.1516
 40
3.31784
 50
0.0
 51
89.99999
  0
ARC
  8
0
  6
CONTINUOUS
 62
     7
 10
310.3611
 20
-236.8128
 40
2.21189
 50
295.0
 51
0.0
  0
ARC
  8
0
  6
CONTINUOUS
 62
     7
 10
310.3611
 20
-235.0457
 40
2.21188
 50
0.0
 51
89.99999
  0
ARC
  8
0
  6
CONTINUOUS
 62
     7
 10
327.5034
 20
-232.8338
 40
3.31784
 50
291.6884
 51
0.0
  0
ARC
  8
0
  6
CONTINUOUS
 62
     7
 10
326.3973
 20
-232.0834
 40
1.10595
 50
291.689
 51
0.0
  0
ARC
  8
0
  6
CONTINUOUS
 62
     7
 10
-205.9368
 20
-30.0
 40
0.5
 50
180.0
 51
270.0
  0
ARC
  8
0
  6
CONTINUOUS
 62
     7
 10
-182.9368
 20
-30.0
 40
0.5
 50
299.9999
 51
0.0
  0
CIRCLE
  8
0
  6
CONTINUOUS
 62
     7
 10
-201.4368
 20
-4.0
 40
1.6
  0
CIRCLE
  8
0
  6
CONTINUOUS
 62
     7
 10
-201.4368
 20
-14.0
 40
1.6
  0
ARC
  8
0
  6
CONTINUOUS
 62
     7
 10
-188.1368
 20
-26.0
 40
0.5
 50
95.73952
 51
180.0
  0
ARC
  8
0
  6
CONTINUOUS
 62
     7
 10
-189.1368
 20
-30.0
 40
0.5
 50
270.0
 51
0.0
  0
ARC
  8
0
  6
CONTINUOUS
 62
     7
 10
-182.9368
 20
-25.0
 40
0.5
 50
270.0
 51
0.0
  0
ARC
  8
0
  6
CONTINUOUS
 62
     7
 10
-185.4368
 20
44.5
 40
6.0
 50
73.80862
 51
106.1914
  0
ARC
  8
0
  6
CONTINUOUS
 62
     7
 10
-183.9868
 20
49.49374
 40
0.8
 50
0.0
 51
73.8082
  0
ARC
  8
0
  6
CONTINUOUS
 62
     7
 10
-186.8868
 20
49.49374
 40
0.8
 50
106.1918
 51
180.0
  0
ARC
  8
0
  6
CONTINUOUS
 62
     7
 10
-162.9368
 20
52.0
 40
0.5
 50
0.0
 51
89.99999
  0
ARC
  8
0
  6
CONTINUOUS
 62
     7
 10
-162.9368
 20
22.5
 40
0.5
 50
270.0
 51
0.0
  0
ARC
  8
0
  6
CONTINUOUS
 62
     7
 10
-176.9368
 20
54.0
 40
0.5
 50
0.0
 51
89.99999
  0
ARC
  8
0
  6
CONTINUOUS
 62
     7
 10
-185.4368
 20
141.0
 40
2.7
 50
0.0
 51
180.0
  0
ARC
  8
0
  6
CONTINUOUS
 62
     7
 10
-203.4368
 20
150.0
 40
2.7
 50
270.0
 51
0.0
  0
ARC
  8
0
  6
CONTINUOUS
 62
     7
 10
-185.4368
 20
141.0
 40
2.55
 50
276.7564
 51
263.2436
  0
ARC
  8
0
  6
CONTINUOUS
 62
     7
 10
-203.4368
 20
150.0
 40
2.55
 50
96.7564
 51
83.24359
  0
CIRCLE
  8
0
  6
CONTINUOUS
 62
     7
 10
-185.4368
 20
141.0
 40
2.25
  0
ARC
  8
0
  6
CONTINUOUS
 62
     7
 10
-185.4368
 20
142.1031
 40
0.51999
 50
225.0
 51
315.0
  0
ARC
  8
0
  6
CONTINUOUS
 62
     7
 10
-186.5399
 20
141.0
 40
0.51999
 50
315.0
 51
45.0
  0
ARC
  8
0
  6
CONTINUOUS
 62
     7
 10
-184.3337
 20
141.0
 40
0.51999
 50
135.0
 51
225.0
  0
ARC
  8
0
  6
CONTINUOUS
 62
     7
 10
-185.4368
 20
139.8969
 40
0.51999
 50
45.0
 51
135.0
  0
CIRCLE
  8
0
  6
CONTINUOUS
 62
     7
 10
-203.4368
 20
150.0
 40
2.25
  0
ARC
  8
0
  6
CONTINUOUS
 62
     7
 10
-203.4368
 20
151.1031
 40
0.51999
 50
225.0
 51
315.0
  0
ARC
  8
0
  6
CONTINUOUS
 62
     7
 10
-204.5399
 20
150.0
 40
0.51999
 50
315.0
 51
45.0
  0
ARC
  8
0
  6
CONTINUOUS
 62
     7
 10
-202.3337
 20
150.0
 40
0.51999
 50
135.0
 51
225.0
  0
ARC
  8
0
  6
CONTINUOUS
 62
     7
 10
-203.4368
 20
148.8969
 40
0.51999
 50
45.0
 51
135.0
  0
ARC
  8
0
  6
CONTINUOUS
 62
     7
 10
-205.9368
 20
152.5
 40
0.5
 50
89.99999
 51
180.0
  0
ARC
  8
0
  6
CONTINUOUS
 62
     7
 10
-205.9368
 20
138.5
 40
0.5
 50
180.0
 51
270.0
  0
ARC
  8
0
  6
CONTINUOUS
 62
     7
 10
-162.9368
 20
138.5
 40
0.5
 50
270.0
 51
0.0
  0
ARC
  8
0
  6
CONTINUOUS
 62
     7
 10
-162.9368
 20
152.5
 40
0.5
 50
0.0
 51
89.99999
  0
ARC
  8
0
  6
CONTINUOUS
 62
     7
 10
-178.4368
 20
149.5
 40
2.0
 50
0.0
 51
89.99999
  0
ARC
  8
0
  6
CONTINUOUS
 62
     7
 10
-178.4368
 20
141.5
 40
2.0
 50
270.0
 51
0.0
  0
CIRCLE
  8
0
  6
CONTINUOUS
 62
     7
 10
-179.4368
 20
142.1
 40
0.85
  0
CIRCLE
  8
0
  6
CONTINUOUS
 62
     7
 10
-179.4368
 20
144.25
 40
0.85
  0
CIRCLE
  8
0
  6
CONTINUOUS
 62
     7
 10
-179.4368
 20
146.75
 40
0.85
  0
CIRCLE
  8
0
  6
CONTINUOUS
 62
     7
 10
-179.4368
 20
148.9
 40
0.85
  0
ARC
  8
0
  6
CONTINUOUS
 62
     7
 10
-313.9368
 20
-30.0
 40
0.5
 50
180.0
 51
240.0
  0
ARC
  8
0
  6
CONTINUOUS
 62
     7
 10
-299.9368
 20
-30.0
 40
0.5
 50
270.0
 51
0.0
  0
CIRCLE
  8
0
  6
CONTINUOUS
 62
     7
 10
-309.9368
 20
1.0
 40
1.75
  0
CIRCLE
  8
0
  6
CONTINUOUS
 62
     7
 10
-306.9368
 20
-9.0
 40
1.75
  0
CIRCLE
  8
0
  6
CONTINUOUS
 62
     7
 10
-303.9368
 20
-19.0
 40
1.75
  0
CIRCLE
  8
0
  6
CONTINUOUS
 62
     7
 10
-309.9368
 20
1.0
 40
2.5
  0
CIRCLE
  8
0
  6
CONTINUOUS
 62
     7
 10
-306.9368
 20
-9.0
 40
2.5
  0
CIRCLE
  8
0
  6
CONTINUOUS
 62
     7
 10
-303.9368
 20
-19.0
 40
2.5
  0
CIRCLE
  8
0
  6
CONTINUOUS
 62
     7
 10
-312.4368
 20
-18.0
 40
1.4
  0
CIRCLE
  8
0
  6
CONTINUOUS
 62
     7
 10
-301.4368
 20
0.0
 40
1.4
  0
ARC
  8
0
  6
CONTINUOUS
 62
     7
 10
-308.7368
 20
-26.0
 40
0.5
 50
0.0
 51
89.99999
  0
ARC
  8
0
  6
CONTINUOUS
 62
     7
 10
-307.7368
 20
-30.0
 40
0.5
 50
180.0
 51
270.0
  0
ARC
  8
0
  6
CONTINUOUS
 62
     7
 10
-313.9368
 20
-25.0
 40
0.5
 50
180.0
 51
270.0
  0
CIRCLE
  8
0
  6
CONTINUOUS
 62
     7
 10
-306.9368
 20
13.70001
 40
2.0
  0
CIRCLE
  8
0
  6
CONTINUOUS
 62
     7
 10
-306.9368
 20
13.70001
 40
2.65
  0
ARC
  8
0
  6
CONTINUOUS
 62
     7
 10
-310.383
 20
42.95331
 40
0.35345
 50
0.0
 51
89.99999
  0
ARC
  8
0
  6
CONTINUOUS
 62
     7
 10
-307.4669
 20
41.05347
 40
0.35346
 50
270.0
 51
0.0
  0
ARC
  8
0
  6
CONTINUOUS
 62
     7
 10
-307.6437
 20
42.77658
 40
0.53018
 50
0.0
 51
89.99999
  0
ARC
  8
0
  6
CONTINUOUS
 62
     7
 10
-304.4184
 20
42.95331
 40
0.35345
 50
0.0
 51
89.99999
  0
ARC
  8
0
  6
CONTINUOUS
 62
     7
 10
-304.4184
 20
42.67093
 40
0.35347
 50
295.0005
 51
0.0
  0
ARC
  8
0
  6
CONTINUOUS
 62
     7
 10
-301.679
 20
43.30676
 40
0.53019
 50
291.6869
 51
0.0
  0
ARC
  8
0
  6
CONTINUOUS
 62
     7
 10
-301.8558
 20
43.4267
 40
0.17673
 50
291.687
 51
0.0
  0
ARC
  8
0
  6
CONTINUOUS
 62
     7
 10
-312.8868
 20
49.49371
 40
0.8
 50
106.1918
 51
180.0
  0
ARC
  8
0
  6
CONTINUOUS
 62
     7
 10
-311.4368
 20
44.5
 40
6.0
 50
73.80876
 51
106.1912
  0
ARC
  8
0
  6
CONTINUOUS
 62
     7
 10
-309.9868
 20
49.49374
 40
0.79999
 50
0.0
 51
73.8082
  0
ARC
  8
0
  6
CONTINUOUS
 62
     7
 10
-312.4368
 20
54.0
 40
0.5
 50
89.99999
 51
180.0
  0
ARC
  8
0
  6
CONTINUOUS
 62
     7
 10
-301.4368
 20
54.0
 40
0.5
 50
0.0
 51
89.99999
  0
ARC
  8
0
  6
CONTINUOUS
 62
     7
 10
-57.93677
 20
-30.0
 40
0.5
 50
180.0
 51
240.0
  0
ARC
  8
0
  6
CONTINUOUS
 62
     7
 10
-43.93677
 20
-30.0
 40
0.5
 50
270.0
 51
0.0
  0
CIRCLE
  8
0
  6
CONTINUOUS
 62
     7
 10
-53.93677
 20
-14.0
 40
1.75
  0
CIRCLE
  8
0
  6
CONTINUOUS
 62
     7
 10
-47.93677
 20
-4.0
 40
1.75
  0
CIRCLE
  8
0
  6
CONTINUOUS
 62
     7
 10
-47.93677
 20
-4.0
 40
2.5
  0
CIRCLE
  8
0
  6
CONTINUOUS
 62
     7
 10
-53.93677
 20
-14.0
 40
2.5
  0
CIRCLE
  8
0
  6
CONTINUOUS
 62
     7
 10
-56.43677
 20
0.0
 40
1.4
  0
CIRCLE
  8
0
  6
CONTINUOUS
 62
     7
 10
-45.43677
 20
-18.0
 40
1.4
  0
ARC
  8
0
  6
CONTINUOUS
 62
     7
 10
-45.43677
 20
-18.0
 40
2.7
 50
42.20544
 51
317.7946
  0
ARC
  8
0
  6
CONTINUOUS
 62
     7
 10
-56.43677
 20
0.0
 40
2.7
 50
0.0
 51
137.7946
  0
ARC
  8
0
  6
CONTINUOUS
 62
     7
 10
-56.43677
 20
0.0
 40
2.7
 50
222.2054
 51
0.0
  0
CIRCLE
  8
0
  6
CONTINUOUS
 62
     7
 10
-50.93677
 20
18.5
 40
1.65
  0
ARC
  8
0
  6
CONTINUOUS
 62
     7
 10
-52.73676
 20
-26.0
 40
0.5
 50
0.0
 51
84.26092
  0
ARC
  8
0
  6
CONTINUOUS
 62
     7
 10
-57.93677
 20
-25.0
 40
0.5
 50
180.0
 51
270.0
  0
ARC
  8
0
  6
CONTINUOUS
 62
     7
 10
-51.73676
 20
-30.0
 40
0.5
 50
180.0
 51
270.0
  0
ARC
  8
0
  6
CONTINUOUS
 62
     7
 10
-50.93677
 20
36.5
 40
3.25
 50
280.0633
 51
259.9366
  0
ARC
  8
0
  6
CONTINUOUS
 62
     7
 10
-57.93677
 20
52.0
 40
0.5
 50
89.99999
 51
180.0
  0
ARC
  8
0
  6
CONTINUOUS
 62
     7
 10
-43.93677
 20
52.0
 40
0.5
 50
0.0
 51
89.99999
  0
CIRCLE
  8
0
  6
CONTINUOUS
 62
     7
 10
-50.93677
 20
36.5
 40
3.0
  0
ARC
  8
0
  6
CONTINUOUS
 62
     7
 10
-50.93677
 20
38.02734
 40
0.72
 50
225.0
 51
315.0
  0
ARC
  8
0
  6
CONTINUOUS
 62
     7
 10
-52.46411
 20
36.5
 40
0.72
 50
315.0
 51
45.0
  0
ARC
  8
0
  6
CONTINUOUS
 62
     7
 10
-50.93677
 20
34.97266
 40
0.72
 50
45.0
 51
135.0
  0
ARC
  8
0
  6
CONTINUOUS
 62
     7
 10
-49.40942
 20
36.5
 40
0.72
 50
135.0
 51
225.0
  0
ARC
  8
0
  6
CONTINUOUS
 62
     7
 10
-56.43677
 20
54.0
 40
0.5
 50
89.99999
 51
180.0
  0
ARC
  8
0
  6
CONTINUOUS
 62
     7
 10
-45.43677
 20
54.0
 40
0.5
 50
0.0
 51
89.99999
  0
ARC
  8
0
  6
CONTINUOUS
 62
     7
 10
-205.9368
 20
-128.5
 40
0.5
 50
89.99999
 51
180.0
  0
ARC
  8
0
  6
CONTINUOUS
 62
     7
 10
-205.9368
 20
-142.5
 40
0.5
 50
180.0
 51
270.0
  0
ARC
  8
0
  6
CONTINUOUS
 62
     7
 10
-182.9368
 20
-128.5
 40
0.5
 50
0.0
 51
89.99999
  0
ARC
  8
0
  6
CONTINUOUS
 62
     7
 10
-182.9368
 20
-142.5
 40
0.5
 50
270.0
 51
0.0
  0
ARC
  8
0
  6
CONTINUOUS
 62
     7
 10
-203.4368
 20
-140.0
 40
3.2
 50
0.0
 51
89.99999
  0
ARC
  8
0
  6
CONTINUOUS
 62
     7
 10
-185.4368
 20
-131.0
 40
3.2
 50
180.0
 51
270.0
  0
ARC
  8
0
  6
CONTINUOUS
 62
     7
 10
-199.7368
 20
-142.5
 40
0.5
 50
180.0
 51
270.0
  0
ARC
  8
0
  6
CONTINUOUS
 62
     7
 10
-205.9368
 20
-136.3
 40
0.5
 50
180.0
 51
270.0
  0
ARC
  8
0
  6
CONTINUOUS
 62
     7
 10
-189.1368
 20
-128.5
 40
0.5
 50
0.0
 51
89.99999
  0
ARC
  8
0
  6
CONTINUOUS
 62
     7
 10
-182.9368
 20
-134.7
 40
0.5
 50
0.0
 51
89.99999
  0
CIRCLE
  8
0
  6
CONTINUOUS
 62
     7
 10
-203.4368
 20
-140.0
 40
2.75
  0
CIRCLE
  8
0
  6
CONTINUOUS
 62
     7
 10
-185.4368
 20
-131.0
 40
2.75
  0
CIRCLE
  8
0
  6
CONTINUOUS
 62
     7
 10
-203.4368
 20
-140.0
 40
1.3
  0
CIRCLE
  8
0
  6
CONTINUOUS
 62
     7
 10
-185.4368
 20
-131.0
 40
1.3
  0
CIRCLE
  8
0
  6
CONTINUOUS
 62
     7
 10
-203.4368
 20
-140.0
 40
1.0
  0
CIRCLE
  8
0
  6
CONTINUOUS
 62
     7
 10
-185.4368
 20
-131.0
 40
1.0
  0
ARC
  8
0
  6
CONTINUOUS
 62
     7
 10
-193.2101
 20
-140.581
 40
0.17672
 50
201.6875
 51
270.0
  0
ARC
  8
0
  6
CONTINUOUS
 62
     7
 10
-193.6835
 20
-132.0537
 40
0.35345
 50
270.0
 51
0.0
  0
ARC
  8
0
  6
CONTINUOUS
 62
     7
 10
-195.5833
 20
-134.9698
 40
0.35345
 50
180.0
 51
270.0
  0
ARC
  8
0
  6
CONTINUOUS
 62
     7
 10
-193.8602
 20
-134.7931
 40
0.5302
 50
270.0
 51
0.0
  0
ARC
  8
0
  6
CONTINUOUS
 62
     7
 10
-193.6835
 20
-138.0184
 40
0.35345
 50
270.0
 51
0.0
  0
ARC
  8
0
  6
CONTINUOUS
 62
     7
 10
-193.9659
 20
-138.0184
 40
0.35346
 50
205.0007
 51
270.0
  0
ARC
  8
0
  6
CONTINUOUS
 62
     7
 10
-193.33
 20
-140.7578
 40
0.53019
 50
201.6884
 51
270.0
  0
ARC
  8
0
  6
CONTINUOUS
 62
     7
 10
-205.9368
 20
-128.5
 40
0.5
 50
89.99999
 51
180.0
  0
ARC
  8
0
  6
CONTINUOUS
 62
     7
 10
-205.9368
 20
-142.5
 40
0.5
 50
180.0
 51
270.0
  0
ARC
  8
0
  6
CONTINUOUS
 62
     7
 10
-205.9368
 20
-128.5
 40
0.5
 50
89.99999
 51
180.0
  0
ARC
  8
0
  6
CONTINUOUS
 62
     7
 10
-205.9368
 20
-142.5
 40
0.5
 50
180.0
 51
270.0
  0
ARC
  8
0
  6
CONTINUOUS
 62
     7
 10
-162.9368
 20
-128.5
 40
0.5
 50
0.0
 51
89.99999
  0
ARC
  8
0
  6
CONTINUOUS
 62
     7
 10
-162.9368
 20
-142.5
 40
0.5
 50
270.0
 51
0.0
  0
ARC
  8
0
  6
CONTINUOUS
 62
     7
 10
172.4368
 20
0.0
 40
2.7
 50
222.2054
 51
0.0
  0
ARC
  8
0
  6
CONTINUOUS
 62
     7
 10
172.4368
 20
0.0
 40
2.7
 50
0.0
 51
137.7946
  0
ARC
  8
0
  6
CONTINUOUS
 62
     7
 10
183.4368
 20
-18.0
 40
2.7
 50
42.20544
 51
317.7946
  0
CIRCLE
  8
0
  6
CONTINUOUS
 62
     7
 10
183.4368
 20
-18.0
 40
1.4
  0
CIRCLE
  8
0
  6
CONTINUOUS
 62
     7
 10
172.4368
 20
0.0
 40
1.4
  0
CIRCLE
  8
0
  6
CONTINUOUS
 62
     7
 10
177.9368
 20
18.5
 40
1.65
  0
ARC
  8
0
  6
CONTINUOUS
 62
     7
 10
170.9368
 20
-30.0
 40
0.5
 50
180.0
 51
270.0
  0
ARC
  8
0
  6
CONTINUOUS
 62
     7
 10
184.9368
 20
-30.0
 40
0.5
 50
270.0
 51
0.0
  0
ARC
  8
0
  6
CONTINUOUS
 62
     7
 10
176.1368
 20
-26.00002
 40
0.5
 50
0.0
 51
89.99999
  0
ARC
  8
0
  6
CONTINUOUS
 62
     7
 10
170.9368
 20
-25.0
 40
0.5
 50
180.0
 51
270.0
  0
ARC
  8
0
  6
CONTINUOUS
 62
     7
 10
177.1368
 20
-30.0
 40
0.5
 50
180.0
 51
270.0
  0
ARC
  8
0
  6
CONTINUOUS
 62
     7
 10
173.4368
 20
-22.89999
 40
5.0
 50
240.5077
 51
299.4923
  0
ARC
  8
0
  6
CONTINUOUS
 62
     7
 10
171.3034
 20
-26.67183
 40
0.66667
 50
180.0
 51
240.5079
  0
ARC
  8
0
  6
CONTINUOUS
 62
     7
 10
175.5701
 20
-26.67183
 40
0.66666
 50
299.4921
 51
0.0
  0
ARC
  8
0
  6
CONTINUOUS
 62
     7
 10
177.9368
 20
36.5
 40
3.25
 50
280.0635
 51
259.9365
  0
ARC
  8
0
  6
CONTINUOUS
 62
     7
 10
170.9368
 20
52.0
 40
0.5
 50
89.99999
 51
180.0
  0
ARC
  8
0
  6
CONTINUOUS
 62
     7
 10
184.9368
 20
52.0
 40
0.5
 50
0.0
 51
89.99999
  0
CIRCLE
  8
0
  6
CONTINUOUS
 62
     7
 10
177.9368
 20
36.5
 40
3.0
  0
ARC
  8
0
  6
CONTINUOUS
 62
     7
 10
177.9368
 20
38.02734
 40
0.71999
 50
225.0004
 51
314.9995
  0
ARC
  8
0
  6
CONTINUOUS
 62
     7
 10
176.4094
 20
36.5
 40
0.71999
 50
314.9995
 51
45.00043
  0
ARC
  8
0
  6
CONTINUOUS
 62
     7
 10
177.9368
 20
34.97266
 40
0.71999
 50
45.00043
 51
134.9996
  0
ARC
  8
0
  6
CONTINUOUS
 62
     7
 10
179.4641
 20
36.5
 40
0.71999
 50
134.9996
 51
224.9996
  0
ARC
  8
0
  6
CONTINUOUS
 62
     7
 10
172.4368
 20
54.0
 40
0.5
 50
89.99999
 51
180.0
  0
ARC
  8
0
  6
CONTINUOUS
 62
     7
 10
183.4368
 20
54.0
 40
0.5
 50
0.0
 51
89.99999
  0
ARC
  8
0
  6
CONTINUOUS
 62
     7
 10
173.4368
 20
136.5
 40
2.7
 50
270.0
 51
89.99999
  0
ARC
  8
0
  6
CONTINUOUS
 62
     7
 10
182.4368
 20
154.5
 40
2.7
 50
180.0
 51
270.0
  0
ARC
  8
0
  6
CONTINUOUS
 62
     7
 10
173.4368
 20
136.5
 40
2.55
 50
186.7564
 51
173.2436
  0
ARC
  8
0
  6
CONTINUOUS
 62
     7
 10
182.4368
 20
154.5
 40
2.55
 50
6.75641
 51
353.2436
  0
CIRCLE
  8
0
  6
CONTINUOUS
 62
     7
 10
173.4368
 20
136.5
 40
2.25
  0
ARC
  8
0
  6
CONTINUOUS
 62
     7
 10
174.5399
 20
136.5
 40
0.51999
 50
135.0
 51
225.0
  0
ARC
  8
0
  6
CONTINUOUS
 62
     7
 10
173.4368
 20
137.6031
 40
0.51999
 50
225.0
 51
315.0
  0
ARC
  8
0
  6
CONTINUOUS
 62
     7
 10
173.4368
 20
135.3969
 40
0.51999
 50
45.0
 51
135.0
  0
ARC
  8
0
  6
CONTINUOUS
 62
     7
 10
172.3337
 20
136.5
 40
0.51999
 50
315.0
 51
45.0
  0
CIRCLE
  8
0
  6
CONTINUOUS
 62
     7
 10
182.4368
 20
154.5
 40
2.25
  0
ARC
  8
0
  6
CONTINUOUS
 62
     7
 10
183.5399
 20
154.5
 40
0.51999
 50
135.0
 51
225.0
  0
ARC
  8
0
  6
CONTINUOUS
 62
     7
 10
182.4368
 20
155.6031
 40
0.51999
 50
225.0
 51
315.0
  0
ARC
  8
0
  6
CONTINUOUS
 62
     7
 10
182.4368
 20
153.3969
 40
0.51999
 50
45.0
 51
135.0
  0
ARC
  8
0
  6
CONTINUOUS
 62
     7
 10
181.3337
 20
154.5
 40
0.51999
 50
315.0
 51
45.0
  0
ARC
  8
0
  6
CONTINUOUS
 62
     7
 10
184.9368
 20
157.0
 40
0.5
 50
0.0
 51
89.99999
  0
ARC
  8
0
  6
CONTINUOUS
 62
     7
 10
170.9368
 20
157.0
 40
0.5
 50
89.99999
 51
180.0
  0
ARC
  8
0
  6
CONTINUOUS
 62
     7
 10
170.9368
 20
114.0
 40
0.5
 50
180.0
 51
270.0
  0
ARC
  8
0
  6
CONTINUOUS
 62
     7
 10
184.9368
 20
114.0
 40
0.5
 50
270.0
 51
0.0
  0
ARC
  8
0
  6
CONTINUOUS
 62
     7
 10
181.9368
 20
129.5
 40
2.0
 50
270.0
 51
0.0
  0
ARC
  8
0
  6
CONTINUOUS
 62
     7
 10
173.9368
 20
129.5
 40
2.0
 50
180.0
 51
270.0
  0
CIRCLE
  8
0
  6
CONTINUOUS
 62
     7
 10
174.5368
 20
130.5
 40
0.85
  0
CIRCLE
  8
0
  6
CONTINUOUS
 62
     7
 10
176.6868
 20
130.5
 40
0.85
  0
CIRCLE
  8
0
  6
CONTINUOUS
 62
     7
 10
179.1868
 20
130.5
 40
0.85
  0
CIRCLE
  8
0
  6
CONTINUOUS
 62
     7
 10
181.3368
 20
130.5
 40
0.85
  0
ARC
  8
0
  6
CONTINUOUS
 62
     7
 10
22.9368
 20
-30.0
 40
0.5
 50
180.0
 51
270.0
  0
ARC
  8
0
  6
CONTINUOUS
 62
     7
 10
45.9368
 20
-30.0
 40
0.5
 50
270.0
 51
0.0
  0
ARC
  8
0
  6
CONTINUOUS
 62
     7
 10
40.73679
 20
-26.00002
 40
0.5
 50
89.99999
 51
180.0
  0
ARC
  8
0
  6
CONTINUOUS
 62
     7
 10
39.73679
 20
-30.0
 40
0.5
 50
270.0
 51
0.0
  0
ARC
  8
0
  6
CONTINUOUS
 62
     7
 10
45.9368
 20
-25.0
 40
0.5
 50
270.0
 51
0.0
  0
ARC
  8
0
  6
CONTINUOUS
 62
     7
 10
43.4368
 20
-22.89999
 40
5.0
 50
240.5076
 51
299.4923
  0
ARC
  8
0
  6
CONTINUOUS
 62
     7
 10
41.30347
 20
-26.67183
 40
0.66667
 50
180.0
 51
240.5076
  0
ARC
  8
0
  6
CONTINUOUS
 62
     7
 10
45.57013
 20
-26.67183
 40
0.66667
 50
299.4924
 51
0.0
  0
ARC
  8
0
  6
CONTINUOUS
 62
     7
 10
43.43678
 20
44.5
 40
6.0
 50
73.80869
 51
106.1913
  0
ARC
  8
0
  6
CONTINUOUS
 62
     7
 10
44.88678
 20
49.49374
 40
0.8
 50
0.0
 51
73.80872
  0
ARC
  8
0
  6
CONTINUOUS
 62
     7
 10
41.98679
 20
49.49374
 40
0.8
 50
106.1913
 51
180.0
  0
ARC
  8
0
  6
CONTINUOUS
 62
     7
 10
65.93678
 20
52.0
 40
0.5
 50
0.0
 51
89.99999
  0
ARC
  8
0
  6
CONTINUOUS
 62
     7
 10
65.93679
 20
22.5
 40
0.5
 50
270.0
 51
0.0
  0
ARC
  8
0
  6
CONTINUOUS
 62
     7
 10
51.93678
 20
54.0
 40
0.5
 50
0.0
 51
89.99999
  0
ARC
  8
0
  6
CONTINUOUS
 62
     7
 10
308.9367
 20
-30.0
 40
0.5
 50
180.0
 51
270.0
  0
ARC
  8
0
  6
CONTINUOUS
 62
     7
 10
331.9367
 20
-30.0
 40
0.5
 50
270.0
 51
0.0
  0
ARC
  8
0
  6
CONTINUOUS
 62
     7
 10
326.7368
 20
-26.00002
 40
0.5
 50
89.99999
 51
180.0
  0
ARC
  8
0
  6
CONTINUOUS
 62
     7
 10
325.7367
 20
-30.0
 40
0.5
 50
270.0
 51
0.0
  0
ARC
  8
0
  6
CONTINUOUS
 62
     7
 10
331.9367
 20
-25.0
 40
0.5
 50
270.0
 51
0.0
  0
ARC
  8
0
  6
CONTINUOUS
 62
     7
 10
329.4367
 20
-22.89999
 40
5.0
 50
240.5075
 51
299.4925
  0
ARC
  8
0
  6
CONTINUOUS
 62
     7
 10
327.3034
 20
-26.67183
 40
0.66666
 50
180.0
 51
240.5067
  0
ARC
  8
0
  6
CONTINUOUS
 62
     7
 10
331.5701
 20
-26.67183
 40
0.66667
 50
299.4933
 51
0.0
  0
ARC
  8
0
  6
CONTINUOUS
 62
     7
 10
329.4367
 20
44.5
 40
6.0
 50
73.80876
 51
106.1912
  0
ARC
  8
0
  6
CONTINUOUS
 62
     7
 10
330.8867
 20
49.49374
 40
0.79999
 50
0.0
 51
73.8082
  0
ARC
  8
0
  6
CONTINUOUS
 62
     7
 10
327.9867
 20
49.49374
 40
0.8
 50
106.1918
 51
180.0
  0
ARC
  8
0
  6
CONTINUOUS
 62
     7
 10
288.9367
 20
22.5
 40
0.5
 50
180.0
 51
270.0
  0
ARC
  8
0
  6
CONTINUOUS
 62
     7
 10
288.9367
 20
52.0
 40
0.5
 50
89.99999
 51
180.0
  0
ARC
  8
0
  6
CONTINUOUS
 62
     7
 10
302.9367
 20
54.0
 40
0.5
 50
89.99999
 51
180.0
  0
ARC
  8
0
  6
CONTINUOUS
 62
     7
 10
173.4368
 20
-126.5
 40
3.2
 50
270.0
 51
0.0
  0
ARC
  8
0
  6
CONTINUOUS
 62
     7
 10
182.4368
 20
-144.5
 40
3.2
 50
89.99999
 51
180.0
  0
ARC
  8
0
  6
CONTINUOUS
 62
     7
 10
174.4905
 20
-134.7467
 40
0.35345
 50
0.0
 51
89.99999
  0
ARC
  8
0
  6
CONTINUOUS
 62
     7
 10
177.4066
 20
-136.6465
 40
0.35345
 50
270.0
 51
0.0
  0
ARC
  8
0
  6
CONTINUOUS
 62
     7
 10
177.2298
 20
-134.9234
 40
0.5302
 50
0.0
 51
89.99999
  0
ARC
  8
0
  6
CONTINUOUS
 62
     7
 10
180.4552
 20
-134.7467
 40
0.35345
 50
0.0
 51
89.99999
  0
ARC
  8
0
  6
CONTINUOUS
 62
     7
 10
180.4552
 20
-135.0291
 40
0.35346
 50
295.0008
 51
0.0
  0
ARC
  8
0
  6
CONTINUOUS
 62
     7
 10
183.1945
 20
-134.3932
 40
0.53019
 50
291.6884
 51
0.0
  0
ARC
  8
0
  6
CONTINUOUS
 62
     7
 10
183.0178
 20
-134.2733
 40
0.17672
 50
291.6875
 51
0.0
  0
ARC
  8
0
  6
CONTINUOUS
 62
     7
 10
170.9368
 20
-147.0
 40
0.5
 50
180.0
 51
270.0
  0
ARC
  8
0
  6
CONTINUOUS
 62
     7
 10
184.9368
 20
-147.0
 40
0.5
 50
270.0
 51
0.0
  0
CIRCLE
  8
0
  6
CONTINUOUS
 62
     7
 10
173.4368
 20
-126.5
 40
2.8
  0
ARC
  8
0
  6
CONTINUOUS
 62
     7
 10
172.164
 20
-126.5
 40
0.6
 50
315.0005
 51
44.99949
  0
ARC
  8
0
  6
CONTINUOUS
 62
     7
 10
173.4368
 20
-127.7728
 40
0.6
 50
44.99949
 51
135.0005
  0
ARC
  8
0
  6
CONTINUOUS
 62
     7
 10
173.4368
 20
-125.2272
 40
0.6
 50
224.9995
 51
315.0005
  0
ARC
  8
0
  6
CONTINUOUS
 62
     7
 10
174.7096
 20
-126.5
 40
0.6
 50
135.0005
 51
224.9995
  0
CIRCLE
  8
0
  6
CONTINUOUS
 62
     7
 10
182.4368
 20
-144.5
 40
2.8
  0
ARC
  8
0
  6
CONTINUOUS
 62
     7
 10
181.164
 20
-144.5
 40
0.60001
 50
315.0
 51
45.0
  0
ARC
  8
0
  6
CONTINUOUS
 62
     7
 10
182.4368
 20
-145.7728
 40
0.60001
 50
45.0
 51
135.0
  0
ARC
  8
0
  6
CONTINUOUS
 62
     7
 10
182.4368
 20
-143.2272
 40
0.60001
 50
225.0
 51
315.0
  0
ARC
  8
0
  6
CONTINUOUS
 62
     7
 10
183.7096
 20
-144.5
 40
0.60001
 50
135.0
 51
225.0
  0
ARC
  8
0
  6
CONTINUOUS
 62
     7
 10
170.9368
 20
-104.0
 40
0.5
 50
89.99999
 51
180.0
  0
ARC
  8
0
  6
CONTINUOUS
 62
     7
 10
184.9368
 20
-104.0
 40
0.5
 50
0.0
 51
89.99999
  0
TEXT
  8
0
  6
CONTINUOUS
 62
     7
 10
-350.9787
 20
200.5946
 40
8.5
  1
MODEL : 110-4E1-FA
 41
0.8
  7
STANDARD
  0
TEXT
  8
0
  6
CONTINUOUS
 62
     7
 10
229.0661
 20
236.2625
 40
8.5
  1
DATE : NOV ,1989
 41
0.8
  7
STANDARD
  0
TEXT
  8
0
  6
CONTINUOUS
 62
     7
 10
-370.6519
 20
235.5575
 40
10.0
  1
110 CONNECTOR -FA
 41
0.73013
  7
STANDARD
  0
TEXT
  8
0
  6
CONTINUOUS
 62
     7
 10
19.88928
 20
200.5946
 40
8.5
  1
MODEL : A110-4E1-FA
 41
0.8
  7
STANDARD
  0
TEXT
  8
0
  6
CONTINUOUS
 62
     7
 10
-313.2774
 20
-3.59192
 40
2.0
  1
R1
 41
0.8
  7
STANDARD
  0
TEXT
  8
0
  6
CONTINUOUS
 62
     7
 10
-303.9738
 20
-8.16321
 40
2.0
  1
P
 41
0.8
  7
STANDARD
  0
TEXT
  8
0
  6
CONTINUOUS
 62
     7
 10
-303.2266
 20
-16.38347
 40
2.0
  1
R2
 41
0.8
  7
STANDARD
  0
TEXT
  8
0
  6
CONTINUOUS
 62
     7
 10
-46.50088
 20
-1.24286
 40
2.0
  1
A
 41
0.8
  7
STANDARD
  0
TEXT
  8
0
  6
CONTINUOUS
 62
     7
 10
-57.37112
 20
-17.89969
 40
2.0
  1
B
 41
0.8
  7
STANDARD
  0
ENDSEC
  0
EOF
