  0
SECTION
  2
HEADER
  9
$ACADVER
  1
AC1002
  9
$INSBASE
 10
0.0
 20
0.0
  9
$EXTMIN
 10
-370.8736
 20
-254.5585
  9
$EXTMAX
 10
370.8736
 20
254.5585
  9
$LIMMIN
 10
0.0
 20
0.0
  9
$LIMMAX
 10
12.0
 20
9.0
  9
$VIEWCTR
 10
28.6093211
 20
0.0
  9
$VIEWSIZE
 40
509.117
  9
$SNAPMODE
 70
     0
  9
$SNAPUNIT
 10
1.0
 20
1.0
  9
$SNAPBASE
 10
0.0
 20
0.0
  9
$SNAPANG
 50
0.0
  9
$SNAPSTYLE
 70
     0
  9
$SNAPISOPAIR
 70
     0
  9
$GRIDMODE
 70
     0
  9
$GRIDUNIT
 10
0.0
 20
0.0
  9
$ORTHOMODE
 70
     0
  9
$REGENMODE
 70
     1
  9
$FILLMODE
 70
     1
  9
$QTEXTMODE
 70
     0
  9
$DRAGMODE
 70
     2
  9
$LTSCALE
 40
1.0
  9
$OSMODE
 70
     0
  9
$ATTMODE
 70
     1
  9
$TEXTSIZE
 40
0.2
  9
$TRACEWID
 40
0.05
  9
$TEXTSTYLE
  7
AAA
  9
$CLAYER
  8
0
  9
$CELTYPE
  6
BYLAYER
  9
$CECOLOR
 62
   256
  9
$DIMSCALE
 40
1.0
  9
$DIMASZ
 40
0.18
  9
$DIMEXO
 40
0.0625
  9
$DIMDLI
 40
0.38
  9
$DIMRND
 40
0.0
  9
$DIMDLE
 40
0.0
  9
$DIMEXE
 40
0.18
  9
$DIMTP
 40
0.0
  9
$DIMTM
 40
0.0
  9
$DIMTXT
 40
0.18
  9
$DIMCEN
 40
0.09
  9
$DIMTSZ
 40
0.0
  9
$DIMTOL
 70
     0
  9
$DIMLIM
 70
     0
  9
$DIMTIH
 70
     1
  9
$DIMTOH
 70
     1
  9
$DIMSE1
 70
     0
  9
$DIMSE2
 70
     0
  9
$DIMTAD
 70
     0
  9
$DIMZIN
 70
     0
  9
$DIMBLK
  1

  9
$LUNITS
 70
     2
  9
$LUPREC
 70
     4
  9
$AXISMODE
 70
     0
  9
$AXISUNIT
 10
0.0
 20
0.0
  9
$SKETCHINC
 40
0.1
  9
$FILLETRAD
 40
0.0
  9
$AUNITS
 70
     0
  9
$AUPREC
 70
     0
  9
$MENU
  1
ACAD
  9
$ELEVATION
 40
0.0
  9
$THICKNESS
 40
0.0
  9
$VIEWDIR
 10
0.0
 20
0.0
 30
1.0
  9
$LIMCHECK
 70
     0
  9
$BLIPMODE
 70
     1
  9
$CHAMFERA
 40
0.0
  9
$CHAMFERB
 40
0.0
  9
$FASTZOOM
 70
     1
  9
$SKPOLY
 70
     0
  9
$TDCREATE
 40
2447869.5540741237
  9
$TDUPDATE
 40
2447869.5540741237
  9
$TDINDWG
 40
0.0031365741
  9
$TDUSRTIMER
 40
0.0031365741
  9
$USRTIMER
 70
     1
  9
$ANGBASE
 50
0.0
  9
$ANGDIR
 70
     0
  9
$PDMODE
 70
     0
  9
$PDSIZE
 40
0.0
  9
$PLINEWID
 40
0.0
  9
$COORDS
 70
     0
  9
$USERI1
 70
     0
  9
$USERI2
 70
     0
  9
$USERI3
 70
     0
  9
$USERI4
 70
     0
  9
$USERI5
 70
     0
  9
$USERR1
 40
0.0
  9
$USERR2
 40
0.0
  9
$USERR3
 40
0.0
  9
$USERR4
 40
0.0
  9
$USERR5
 40
0.0
  0
ENDSEC
  0
SECTION
  2
TABLES
  0
TABLE
  2
LTYPE
 70
     2
  0
LTYPE
  2
CONTINUOUS
 70
    64
  3
SOLID
 72
    65
 73
     0
 40
0.0
  0
LTYPE
  2
CENTER
 70
    64
  3
CENTER
 72
    65
 73
     4
 40
2.0
 49
1.25
 49
-0.25
 49
0.25
 49
-0.25
  0
ENDTAB
  0
TABLE
  2
LAYER
 70
     1
  0
LAYER
  2
0
 70
    64
 62
     7
  6
CONTINUOUS
  0
ENDTAB
  0
TABLE
  2
STYLE
 70
     2
  0
STYLE
  2
AAA
 70
     0
 40
0.0
 41
1.0
 50
0.0
 71
     0
 42
0.2
  3
TXT
  4

  0
STYLE
  2
STANDARD
 70
    64
 40
0.0
 41
1.0
 50
0.0
 71
     0
 42
0.2
  3
TXT
  4
BIGFONT
  0
ENDTAB
  0
TABLE
  2
VIEW
 70
     0
  0
ENDTAB
  0
ENDSEC
  0
SECTION
  2
BLOCKS
  0
ENDSEC
  0
SECTION
  2
ENTITIES
  0
POINT
  8
0
  6
CONTINUOUS
 62
     7
 10
-195.4368
 20
145.0
  0
POINT
  8
0
  6
CONTINUOUS
 62
     7
 10
-182.4368
 20
145.0
  0
POINT
  8
0
  6
CONTINUOUS
 62
     7
 10
-195.4368
 20
-20.0
  0
POINT
  8
0
  6
CONTINUOUS
 62
     7
 10
-182.4368
 20
-20.0
  0
POINT
  8
0
  6
CONTINUOUS
 62
     7
 10
-189.9368
 20
-1.5
  0
POINT
  8
0
  6
CONTINUOUS
 62
     7
 10
-186.9368
 20
-24.0
  0
POINT
  8
0
  6
CONTINUOUS
 62
     7
 10
-195.4368
 20
-180.9999
  0
POINT
  8
0
  6
CONTINUOUS
 62
     7
 10
-182.4368
 20
-180.9999
  0
POINT
  8
0
  6
CONTINUOUS
 62
     7
 10
-189.9368
 20
-156.9999
  0
POINT
  8
0
  6
CONTINUOUS
 62
     7
 10
-35.43675
 20
-20.0
  0
POINT
  8
0
  6
CONTINUOUS
 62
     7
 10
-59.43675
 20
-1.5
  0
POINT
  8
0
  6
CONTINUOUS
 62
     7
 10
-345.4368
 20
-20.00003
  0
POINT
  8
0
  6
CONTINUOUS
 62
     7
 10
-321.4368
 20
-20.00003
  0
POINT
  8
0
  6
CONTINUOUS
 62
     7
 10
-321.4368
 20
-1.50003
  0
POINT
  8
0
  6
CONTINUOUS
 62
     7
 10
46.4368
 20
-20.00005
  0
POINT
  8
0
  6
CONTINUOUS
 62
     7
 10
22.4368
 20
-20.00005
  0
POINT
  8
0
  6
CONTINUOUS
 62
     7
 10
46.4368
 20
-1.50005
  0
POINT
  8
0
  6
CONTINUOUS
 62
     7
 10
172.4368
 20
145.0
  0
POINT
  8
0
  6
CONTINUOUS
 62
     7
 10
185.4368
 20
145.0
  0
POINT
  8
0
  6
CONTINUOUS
 62
     7
 10
172.4368
 20
-20.0
  0
POINT
  8
0
  6
CONTINUOUS
 62
     7
 10
185.4368
 20
-20.0
  0
POINT
  8
0
  6
CONTINUOUS
 62
     7
 10
177.9368
 20
-1.5
  0
POINT
  8
0
  6
CONTINUOUS
 62
     7
 10
332.4368
 20
-20.00003
  0
POINT
  8
0
  6
CONTINUOUS
 62
     7
 10
308.4368
 20
-1.50003
  0
POINT
  8
0
  6
CONTINUOUS
 62
     7
 10
172.4368
 20
-181.0
  0
POINT
  8
0
  6
CONTINUOUS
 62
     7
 10
185.4368
 20
-181.0
  0
POINT
  8
0
  6
CONTINUOUS
 62
     7
 10
177.9368
 20
-157.0
  0
LINE
  8
0
  6
CONTINUOUS
 62
     7
 10
218.3292
 20
-225.9564
 11
370.8736
 21
-225.9564
  0
LINE
  8
0
  6
CONTINUOUS
 62
     7
 10
-218.3292
 20
225.9564
 11
-218.3292
 21
254.5585
  0
LINE
  8
0
  6
CONTINUOUS
 62
     7
 10
-370.8736
 20
225.9564
 11
-218.3292
 21
225.9564
  0
LINE
  8
0
  6
CONTINUOUS
 62
     7
 10
-370.8736
 20
254.5585
 11
370.8736
 21
254.5585
  0
LINE
  8
0
  6
CONTINUOUS
 62
     7
 10
-370.8736
 20
-254.5585
 11
370.8736
 21
-254.5585
  0
LINE
  8
0
  6
CONTINUOUS
 62
     7
 10
370.8736
 20
254.5585
 11
370.8736
 21
-254.5585
  0
LINE
  8
0
  6
CONTINUOUS
 62
     7
 10
-370.8736
 20
-254.5585
 11
-370.8736
 21
254.5585
  0
LINE
  8
0
  6
CONTINUOUS
 62
     7
 10
218.3292
 20
-225.9564
 11
218.3292
 21
-254.5585
  0
LINE
  8
0
  6
CONTINUOUS
 62
     7
 10
218.3292
 20
254.5585
 11
218.3292
 21
225.9564
  0
LINE
  8
0
  6
CONTINUOUS
 62
     7
 10
218.3292
 20
225.9564
 11
370.8736
 21
225.9564
  0
LINE
  8
0
  6
CONTINUOUS
 62
     7
 10
258.3816
 20
-232.8337
 11
258.3816
 21
-236.1516
  0
LINE
  8
0
  6
CONTINUOUS
 62
     7
 10
258.3816
 20
-236.1516
 11
270.8235
 21
-236.1516
  0
LINE
  8
0
  6
CONTINUOUS
 62
     7
 10
258.3816
 20
-249.1465
 11
275.2473
 21
-249.1465
  0
LINE
  8
0
  6
CONTINUOUS
 62
     7
 10
258.3816
 20
-245.8286
 11
270.8235
 21
-245.8286
  0
LINE
  8
0
  6
CONTINUOUS
 62
     7
 10
258.3816
 20
-232.8337
 11
273.0354
 21
-232.8337
  0
LINE
  8
0
  6
CONTINUOUS
 62
     7
 10
270.8235
 20
-236.1516
 11
270.8235
 21
-245.8286
  0
LINE
  8
0
  6
CONTINUOUS
 62
     7
 10
275.2473
 20
-235.0457
 11
275.2473
 21
-249.1465
  0
LINE
  8
0
  6
CONTINUOUS
 62
     7
 10
258.3816
 20
-245.8286
 11
258.3816
 21
-249.1465
  0
LINE
  8
0
  6
CONTINUOUS
 62
     7
 10
293.4954
 20
-236.1516
 11
293.4954
 21
-246.9346
  0
LINE
  8
0
  6
CONTINUOUS
 62
     7
 10
277.7357
 20
-232.8337
 11
277.7357
 21
-236.1516
  0
LINE
  8
0
  6
CONTINUOUS
 62
     7
 10
293.9378
 20
-232.585
 11
295.5138
 21
-232.585
  0
LINE
  8
0
  6
CONTINUOUS
 62
     7
 10
293.9378
 20
-230.373
 11
295.5138
 21
-230.373
  0
LINE
  8
0
  6
CONTINUOUS
 62
     7
 10
295.5138
 20
-230.373
 11
295.5138
 21
-232.585
  0
LINE
  8
0
  6
CONTINUOUS
 62
     7
 10
293.9378
 20
-230.373
 11
293.9378
 21
-232.585
  0
LINE
  8
0
  6
CONTINUOUS
 62
     7
 10
293.1083
 20
-230.373
 11
293.1083
 21
-232.585
  0
LINE
  8
0
  6
CONTINUOUS
 62
     7
 10
282.7661
 20
-230.373
 11
286.2009
 21
-230.373
  0
LINE
  8
0
  6
CONTINUOUS
 62
     7
 10
285.5413
 20
-232.8335
 11
286.2006
 21
-230.3727
  0
LINE
  8
0
  6
CONTINUOUS
 62
     7
 10
282.1067
 20
-232.8337
 11
282.766
 21
-230.373
  0
LINE
  8
0
  6
CONTINUOUS
 62
     7
 10
285.5416
 20
-232.8337
 11
290.1776
 21
-232.8337
  0
LINE
  8
0
  6
CONTINUOUS
 62
     7
 10
284.6526
 20
-236.1516
 11
289.0716
 21
-236.1516
  0
LINE
  8
0
  6
CONTINUOUS
 62
     7
 10
286.6429
 20
-249.1465
 11
291.2836
 21
-249.1465
  0
LINE
  8
0
  6
CONTINUOUS
 62
     7
 10
285.7537
 20
-245.8286
 11
286.6427
 21
-249.1463
  0
LINE
  8
0
  6
CONTINUOUS
 62
     7
 10
285.7538
 20
-245.8286
 11
289.0716
 21
-245.8286
  0
LINE
  8
0
  6
CONTINUOUS
 62
     7
 10
281.1707
 20
-249.1466
 11
284.6527
 21
-236.1517
  0
LINE
  8
0
  6
CONTINUOUS
 62
     7
 10
277.7357
 20
-236.1516
 11
281.2177
 21
-236.1516
  0
LINE
  8
0
  6
CONTINUOUS
 62
     7
 10
277.7354
 20
-249.1462
 11
281.2175
 21
-236.1513
  0
LINE
  8
0
  6
CONTINUOUS
 62
     7
 10
277.7357
 20
-249.1465
 11
281.1706
 21
-249.1465
  0
LINE
  8
0
  6
CONTINUOUS
 62
     7
 10
277.7357
 20
-232.8337
 11
282.1067
 21
-232.8337
  0
LINE
  8
0
  6
CONTINUOUS
 62
     7
 10
289.0716
 20
-236.1516
 11
289.0716
 21
-245.8286
  0
LINE
  8
0
  6
CONTINUOUS
 62
     7
 10
291.5323
 20
-230.373
 11
293.1083
 21
-230.373
  0
LINE
  8
0
  6
CONTINUOUS
 62
     7
 10
291.5323
 20
-232.585
 11
293.1083
 21
-232.585
  0
LINE
  8
0
  6
CONTINUOUS
 62
     7
 10
291.5323
 20
-230.373
 11
291.5323
 21
-232.585
  0
LINE
  8
0
  6
CONTINUOUS
 62
     7
 10
301.5135
 20
-230.373
 11
305.9373
 21
-230.373
  0
LINE
  8
0
  6
CONTINUOUS
 62
     7
 10
308.3423
 20
-240.1951
 11
311.2962
 21
-238.8176
  0
LINE
  8
0
  6
CONTINUOUS
 62
     7
 10
305.9373
 20
-242.7344
 11
305.9373
 21
-249.1465
  0
LINE
  8
0
  6
CONTINUOUS
 62
     7
 10
301.5135
 20
-243.379
 11
301.5135
 21
-249.1465
  0
LINE
  8
0
  6
CONTINUOUS
 62
     7
 10
305.9373
 20
-232.8337
 11
310.3611
 21
-232.8337
  0
LINE
  8
0
  6
CONTINUOUS
 62
     7
 10
305.9373
 20
-230.373
 11
305.9373
 21
-232.8337
  0
LINE
  8
0
  6
CONTINUOUS
 62
     7
 10
301.5135
 20
-230.373
 11
301.5135
 21
-232.8337
  0
LINE
  8
0
  6
CONTINUOUS
 62
     7
 10
312.573
 20
-235.0457
 11
312.573
 21
-236.8128
  0
LINE
  8
0
  6
CONTINUOUS
 62
     7
 10
308.3424
 20
-240.195
 11
312.5734
 21
-242.168
  0
LINE
  8
0
  6
CONTINUOUS
 62
     7
 10
305.9373
 20
-242.7343
 11
312.5731
 21
-245.8286
  0
LINE
  8
0
  6
CONTINUOUS
 62
     7
 10
296.2603
 20
-242.1678
 11
296.2603
 21
-245.8286
  0
LINE
  8
0
  6
CONTINUOUS
 62
     7
 10
296.2607
 20
-242.1682
 11
309.1626
 21
-236.1519
  0
LINE
  8
0
  6
CONTINUOUS
 62
     7
 10
296.2603
 20
-245.8286
 11
301.5136
 21
-243.3789
  0
LINE
  8
0
  6
CONTINUOUS
 62
     7
 10
312.573
 20
-242.1678
 11
312.573
 21
-245.8286
  0
LINE
  8
0
  6
CONTINUOUS
 62
     7
 10
296.2603
 20
-232.8337
 11
296.2603
 21
-236.1516
  0
LINE
  8
0
  6
CONTINUOUS
 62
     7
 10
301.5135
 20
-249.1465
 11
305.9373
 21
-249.1465
  0
LINE
  8
0
  6
CONTINUOUS
 62
     7
 10
296.2603
 20
-236.1516
 11
309.1621
 21
-236.1516
  0
LINE
  8
0
  6
CONTINUOUS
 62
     7
 10
296.2603
 20
-232.8337
 11
301.5135
 21
-232.8337
  0
LINE
  8
0
  6
CONTINUOUS
 62
     7
 10
327.504
 20
-236.4047
 11
328.73
 21
-235.9171
  0
LINE
  8
0
  6
CONTINUOUS
 62
     7
 10
327.5034
 20
-236.4044
 11
327.5034
 21
-249.1465
  0
LINE
  8
0
  6
CONTINUOUS
 62
     7
 10
323.0795
 20
-249.1465
 11
327.5034
 21
-249.1465
  0
LINE
  8
0
  6
CONTINUOUS
 62
     7
 10
313.9553
 20
-241.7925
 11
323.0794
 21
-238.1637
  0
LINE
  8
0
  6
CONTINUOUS
 62
     7
 10
313.9555
 20
-238.222
 11
326.8062
 21
-233.1111
  0
LINE
  8
0
  6
CONTINUOUS
 62
     7
 10
323.0795
 20
-238.1638
 11
323.0795
 21
-249.1465
  0
LINE
  8
0
  6
CONTINUOUS
 62
     7
 10
327.5034
 20
-231.3684
 11
327.5034
 21
-232.0834
  0
LINE
  8
0
  6
CONTINUOUS
 62
     7
 10
330.8211
 20
-231.3684
 11
330.8211
 21
-232.8338
  0
LINE
  8
0
  6
CONTINUOUS
 62
     7
 10
313.9554
 20
-238.2219
 11
313.9554
 21
-241.7925
  0
LINE
  8
0
  6
CONTINUOUS
 62
     7
 10
327.5034
 20
-231.3684
 11
330.8211
 21
-231.3684
  0
LINE
  8
0
  6
CONTINUOUS
 62
     7
 10
0.0
 20
254.5585
 11
0.0
 21
-254.5585
  0
LINE
  8
0
  6
CONTINUOUS
 62
     7
 10
170.4368
 20
-163.1999
 11
173.4368
 21
-163.1999
  0
LINE
  8
0
  6
CONTINUOUS
 62
     7
 10
182.4368
 20
-174.8
 11
185.4368
 21
-174.8
  0
LINE
  8
0
  6
CONTINUOUS
 62
     7
 10
176.6368
 20
-160.0
 11
176.6368
 21
-157.0
  0
LINE
  8
0
  6
CONTINUOUS
 62
     7
 10
179.2368
 20
-178.0
 11
179.2368
 21
-181.0
  0
LINE
  8
0
  6
CENTER
 62
     2
 10
168.9368
 20
-169.0
 11
186.9368
 21
-169.0
  0
LINE
  8
0
  6
CENTER
 62
     2
 10
177.9368
 20
-122.8244
 11
177.9368
 21
-183.0
  0
LINE
  8
0
  6
CONTINUOUS
 62
     7
 10
171.4368
 20
-167.0
 11
184.4368
 21
-167.0
  0
LINE
  8
0
  6
CONTINUOUS
 62
     7
 10
171.4368
 20
-171.0
 11
184.4368
 21
-171.0
  0
LINE
  8
0
  6
CONTINUOUS
 62
     7
 10
184.4368
 20
-167.0
 11
184.4368
 21
-171.0
  0
LINE
  8
0
  6
CONTINUOUS
 62
     7
 10
171.4368
 20
-167.0
 11
171.4368
 21
-171.0
  0
LINE
  8
0
  6
CONTINUOUS
 62
     7
 10
172.1489
 20
-169.9698
 11
174.1371
 21
-169.9698
  0
LINE
  8
0
  6
CONTINUOUS
 62
     7
 10
172.1489
 20
-170.5
 11
174.844
 21
-170.5
  0
LINE
  8
0
  6
CONTINUOUS
 62
     7
 10
172.1489
 20
-168.4234
 11
174.1371
 21
-168.4234
  0
LINE
  8
0
  6
CONTINUOUS
 62
     7
 10
172.1489
 20
-167.8932
 11
172.1489
 21
-168.4234
  0
LINE
  8
0
  6
CONTINUOUS
 62
     7
 10
174.844
 20
-168.2466
 11
174.844
 21
-170.5
  0
LINE
  8
0
  6
CONTINUOUS
 62
     7
 10
174.1371
 20
-168.4234
 11
174.1371
 21
-169.9698
  0
LINE
  8
0
  6
CONTINUOUS
 62
     7
 10
175.2416
 20
-167.8932
 11
175.2416
 21
-168.4234
  0
LINE
  8
0
  6
CONTINUOUS
 62
     7
 10
177.7601
 20
-168.4234
 11
177.7601
 21
-170.1465
  0
LINE
  8
0
  6
CONTINUOUS
 62
     7
 10
177.0531
 20
-168.4234
 11
177.0531
 21
-169.9698
  0
LINE
  8
0
  6
CONTINUOUS
 62
     7
 10
172.1489
 20
-169.9698
 11
172.1489
 21
-170.5
  0
LINE
  8
0
  6
CONTINUOUS
 62
     7
 10
175.2416
 20
-167.8932
 11
175.9401
 21
-167.8932
  0
LINE
  8
0
  6
CONTINUOUS
 62
     7
 10
175.2416
 20
-170.5
 11
175.7905
 21
-170.5
  0
LINE
  8
0
  6
CONTINUOUS
 62
     7
 10
175.2418
 20
-170.5
 11
175.7983
 21
-168.4234
  0
LINE
  8
0
  6
CONTINUOUS
 62
     7
 10
175.2416
 20
-168.4234
 11
175.7981
 21
-168.4234
  0
LINE
  8
0
  6
CONTINUOUS
 62
     7
 10
175.7908
 20
-170.5001
 11
176.3472
 21
-168.4235
  0
LINE
  8
0
  6
CONTINUOUS
 62
     7
 10
176.5229
 20
-169.9698
 11
177.0531
 21
-169.9698
  0
LINE
  8
0
  6
CONTINUOUS
 62
     7
 10
176.5229
 20
-169.9698
 11
176.6649
 21
-170.5
  0
LINE
  8
0
  6
CONTINUOUS
 62
     7
 10
176.665
 20
-170.5
 11
177.4066
 21
-170.5
  0
LINE
  8
0
  6
CONTINUOUS
 62
     7
 10
176.347
 20
-168.4234
 11
177.0531
 21
-168.4234
  0
LINE
  8
0
  6
CONTINUOUS
 62
     7
 10
176.489
 20
-167.8932
 11
177.2299
 21
-167.8932
  0
LINE
  8
0
  6
CONTINUOUS
 62
     7
 10
175.9405
 20
-167.8933
 11
176.0458
 21
-167.5001
  0
LINE
  8
0
  6
CONTINUOUS
 62
     7
 10
176.489
 20
-167.8932
 11
176.5944
 21
-167.4999
  0
LINE
  8
0
  6
CONTINUOUS
 62
     7
 10
178.2019
 20
-167.8932
 11
179.0414
 21
-167.8932
  0
LINE
  8
0
  6
CONTINUOUS
 62
     7
 10
178.2019
 20
-168.4234
 11
180.2636
 21
-168.4234
  0
LINE
  8
0
  6
CONTINUOUS
 62
     7
 10
179.0414
 20
-170.5
 11
179.7483
 21
-170.5
  0
LINE
  8
0
  6
CONTINUOUS
 62
     7
 10
178.2019
 20
-167.8932
 11
178.2019
 21
-168.4234
  0
LINE
  8
0
  6
CONTINUOUS
 62
     7
 10
180.8087
 20
-169.3848
 11
180.8087
 21
-169.9698
  0
LINE
  8
0
  6
CONTINUOUS
 62
     7
 10
178.202
 20
-169.97
 11
179.0415
 21
-169.5785
  0
LINE
  8
0
  6
CONTINUOUS
 62
     7
 10
178.2019
 20
-169.3849
 11
180.2636
 21
-168.4235
  0
LINE
  8
0
  6
CONTINUOUS
 62
     7
 10
178.2019
 20
-169.3848
 11
178.2019
 21
-169.9698
  0
LINE
  8
0
  6
CONTINUOUS
 62
     7
 10
179.7483
 20
-169.4753
 11
180.8087
 21
-169.9697
  0
LINE
  8
0
  6
CONTINUOUS
 62
     7
 10
180.1326
 20
-169.0695
 11
180.8087
 21
-169.3848
  0
LINE
  8
0
  6
CONTINUOUS
 62
     7
 10
180.8087
 20
-168.2466
 11
180.8087
 21
-168.529
  0
LINE
  8
0
  6
CONTINUOUS
 62
     7
 10
179.0414
 20
-167.5
 11
179.0414
 21
-167.8932
  0
LINE
  8
0
  6
CONTINUOUS
 62
     7
 10
179.7483
 20
-167.5
 11
179.7483
 21
-167.8932
  0
LINE
  8
0
  6
CONTINUOUS
 62
     7
 10
179.7483
 20
-167.8932
 11
180.4552
 21
-167.8932
  0
LINE
  8
0
  6
CONTINUOUS
 62
     7
 10
179.0414
 20
-169.5783
 11
179.0414
 21
-170.5
  0
LINE
  8
0
  6
CONTINUOUS
 62
     7
 10
179.7483
 20
-169.4753
 11
179.7483
 21
-170.5
  0
LINE
  8
0
  6
CONTINUOUS
 62
     7
 10
180.1327
 20
-169.0697
 11
180.6047
 21
-168.8495
  0
LINE
  8
0
  6
CONTINUOUS
 62
     7
 10
183.1945
 20
-167.659
 11
183.7247
 21
-167.659
  0
LINE
  8
0
  6
CONTINUOUS
 62
     7
 10
181.0296
 20
-168.7542
 11
181.0296
 21
-169.3248
  0
LINE
  8
0
  6
CONTINUOUS
 62
     7
 10
183.7247
 20
-167.659
 11
183.7247
 21
-167.8932
  0
LINE
  8
0
  6
CONTINUOUS
 62
     7
 10
183.1945
 20
-167.659
 11
183.1945
 21
-167.7733
  0
LINE
  8
0
  6
CONTINUOUS
 62
     7
 10
182.4876
 20
-168.7449
 11
182.4876
 21
-170.5
  0
LINE
  8
0
  6
CONTINUOUS
 62
     7
 10
181.0297
 20
-168.7543
 11
183.0832
 21
-167.9375
  0
LINE
  8
0
  6
CONTINUOUS
 62
     7
 10
181.0296
 20
-169.3247
 11
182.4876
 21
-168.7448
  0
LINE
  8
0
  6
CONTINUOUS
 62
     7
 10
182.4876
 20
-170.5
 11
183.1945
 21
-170.5
  0
LINE
  8
0
  6
CONTINUOUS
 62
     7
 10
183.1945
 20
-168.4638
 11
183.1945
 21
-170.5
  0
LINE
  8
0
  6
CONTINUOUS
 62
     7
 10
183.1945
 20
-168.4637
 11
183.3905
 21
-168.3858
  0
LINE
  8
0
  6
CONTINUOUS
 62
     7
 10
176.0455
 20
-167.5
 11
176.5944
 21
-167.5
  0
LINE
  8
0
  6
CONTINUOUS
 62
     7
 10
177.4729
 20
-167.5
 11
177.6989
 21
-167.5
  0
LINE
  8
0
  6
CONTINUOUS
 62
     7
 10
179.0414
 20
-167.5
 11
179.7483
 21
-167.5
  0
LINE
  8
0
  6
CONTINUOUS
 62
     7
 10
177.4729
 20
-167.8534
 11
177.6989
 21
-167.8534
  0
LINE
  8
0
  6
CONTINUOUS
 62
     7
 10
177.4729
 20
-167.5
 11
177.4729
 21
-167.8534
  0
LINE
  8
0
  6
CONTINUOUS
 62
     7
 10
177.6989
 20
-167.5
 11
177.6989
 21
-167.8534
  0
LINE
  8
0
  6
CONTINUOUS
 62
     7
 10
177.8566
 20
-167.5
 11
177.8566
 21
-167.8534
  0
LINE
  8
0
  6
CONTINUOUS
 62
     7
 10
178.0826
 20
-167.5
 11
178.0826
 21
-167.8534
  0
LINE
  8
0
  6
CONTINUOUS
 62
     7
 10
177.8566
 20
-167.5
 11
178.0826
 21
-167.5
  0
LINE
  8
0
  6
CONTINUOUS
 62
     7
 10
177.8566
 20
-167.8534
 11
178.0826
 21
-167.8534
  0
LINE
  8
0
  6
CONTINUOUS
 62
     7
 10
185.4368
 20
-180.5
 11
185.4368
 21
-150.0
  0
LINE
  8
0
  6
CONTINUOUS
 62
     7
 10
170.4368
 20
-180.5
 11
170.4368
 21
-150.0
  0
LINE
  8
0
  6
CONTINUOUS
 62
     7
 10
170.9368
 20
-181.0
 11
184.9368
 21
-181.0
  0
LINE
  8
0
  6
CONTINUOUS
 62
     7
 10
170.4368
 20
-157.0
 11
185.4368
 21
-157.0
  0
LINE
  8
0
  6
CONTINUOUS
 62
     7
 10
172.1489
 20
-167.8932
 11
174.4905
 21
-167.8932
  0
LINE
  8
0
  6
CONTINUOUS
 62
     7
 10
177.7601
 20
-168.4234
 11
177.7601
 21
-170.1465
  0
LINE
  8
0
  6
CONTINUOUS
 62
     7
 10
176.665
 20
-170.5
 11
177.4066
 21
-170.5
  0
LINE
  8
0
  6
CONTINUOUS
 62
     7
 10
176.489
 20
-167.8932
 11
177.2299
 21
-167.8932
  0
LINE
  8
0
  6
CONTINUOUS
 62
     7
 10
180.8087
 20
-168.2466
 11
180.8087
 21
-168.529
  0
LINE
  8
0
  6
CONTINUOUS
 62
     7
 10
183.1945
 20
-167.659
 11
183.7247
 21
-167.659
  0
LINE
  8
0
  6
CONTINUOUS
 62
     7
 10
183.7247
 20
-167.659
 11
183.7247
 21
-167.8932
  0
LINE
  8
0
  6
CONTINUOUS
 62
     7
 10
183.1945
 20
-167.659
 11
183.1945
 21
-167.7733
  0
LINE
  8
0
  6
CONTINUOUS
 62
     7
 10
181.0297
 20
-168.7543
 11
183.0832
 21
-167.9375
  0
LINE
  8
0
  6
CONTINUOUS
 62
     7
 10
183.1945
 20
-168.4638
 11
183.1945
 21
-170.5
  0
LINE
  8
0
  6
CONTINUOUS
 62
     7
 10
183.1945
 20
-168.4635
 11
183.3904
 21
-168.3855
  0
LINE
  8
0
  6
CENTER
 62
     2
 10
173.4368
 20
-164.1789
 11
173.4368
 21
-155.832
  0
LINE
  8
0
  6
CENTER
 62
     2
 10
169.4045
 20
-160.0
 11
177.3466
 21
-160.0
  0
LINE
  8
0
  6
CONTINUOUS
 62
     7
 10
172.5884
 20
-161.2728
 11
172.1641
 21
-160.8485
  0
LINE
  8
0
  6
CONTINUOUS
 62
     7
 10
174.7097
 20
-159.1514
 11
174.2854
 21
-158.7271
  0
LINE
  8
0
  6
CONTINUOUS
 62
     7
 10
174.2855
 20
-161.2728
 11
173.8612
 21
-160.8485
  0
LINE
  8
0
  6
CONTINUOUS
 62
     7
 10
174.7097
 20
-160.8484
 11
174.2854
 21
-160.4242
  0
LINE
  8
0
  6
CONTINUOUS
 62
     7
 10
174.2854
 20
-161.2728
 11
174.7096
 21
-160.8485
  0
LINE
  8
0
  6
CONTINUOUS
 62
     7
 10
172.1641
 20
-159.1515
 11
172.5883
 21
-158.7273
  0
LINE
  8
0
  6
CONTINUOUS
 62
     7
 10
172.5884
 20
-161.2728
 11
173.0126
 21
-160.8486
  0
LINE
  8
0
  6
CONTINUOUS
 62
     7
 10
172.1642
 20
-160.8486
 11
172.5885
 21
-160.4244
  0
LINE
  8
0
  6
CONTINUOUS
 62
     7
 10
172.5884
 20
-159.5757
 11
172.1641
 21
-159.1514
  0
LINE
  8
0
  6
CONTINUOUS
 62
     7
 10
173.0126
 20
-159.1514
 11
172.5884
 21
-158.7271
  0
LINE
  8
0
  6
CONTINUOUS
 62
     7
 10
174.2854
 20
-159.5758
 11
174.7097
 21
-159.1515
  0
LINE
  8
0
  6
CONTINUOUS
 62
     7
 10
173.8613
 20
-159.1516
 11
174.2855
 21
-158.7273
  0
LINE
  8
0
  6
CENTER
 62
     2
 10
182.4368
 20
-182.1789
 11
182.4368
 21
-173.832
  0
LINE
  8
0
  6
CENTER
 62
     2
 10
178.4045
 20
-178.0
 11
186.3465
 21
-178.0
  0
LINE
  8
0
  6
CONTINUOUS
 62
     7
 10
181.5884
 20
-179.2727
 11
181.1641
 21
-178.8485
  0
LINE
  8
0
  6
CONTINUOUS
 62
     7
 10
183.7096
 20
-177.1514
 11
183.2854
 21
-176.7271
  0
LINE
  8
0
  6
CONTINUOUS
 62
     7
 10
183.2854
 20
-179.2727
 11
182.8611
 21
-178.8484
  0
LINE
  8
0
  6
CONTINUOUS
 62
     7
 10
183.7097
 20
-178.8485
 11
183.2854
 21
-178.4242
  0
LINE
  8
0
  6
CONTINUOUS
 62
     7
 10
183.2854
 20
-179.2729
 11
183.7097
 21
-178.8486
  0
LINE
  8
0
  6
CONTINUOUS
 62
     7
 10
181.1641
 20
-177.1515
 11
181.5884
 21
-176.7273
  0
LINE
  8
0
  6
CONTINUOUS
 62
     7
 10
181.5884
 20
-179.2729
 11
182.0126
 21
-178.8486
  0
LINE
  8
0
  6
CONTINUOUS
 62
     7
 10
181.1641
 20
-178.8486
 11
181.5884
 21
-178.4243
  0
LINE
  8
0
  6
CONTINUOUS
 62
     7
 10
181.5883
 20
-177.5756
 11
181.1641
 21
-177.1514
  0
LINE
  8
0
  6
CONTINUOUS
 62
     7
 10
182.0126
 20
-177.1514
 11
181.5884
 21
-176.7272
  0
LINE
  8
0
  6
CONTINUOUS
 62
     7
 10
183.2854
 20
-177.5758
 11
183.7097
 21
-177.1516
  0
LINE
  8
0
  6
CONTINUOUS
 62
     7
 10
182.8612
 20
-177.1515
 11
183.2854
 21
-176.7273
  0
LINE
  8
0
  6
CONTINUOUS
 62
     7
 10
170.4368
 20
-154.0
 11
185.4368
 21
-154.0
  0
LINE
  8
0
  6
CONTINUOUS
 62
     7
 10
170.4368
 20
-150.0
 11
185.4368
 21
-150.0
  0
LINE
  8
0
  6
CONTINUOUS
 62
     7
 10
185.3368
 20
-150.0
 11
185.3368
 21
-127.5
  0
LINE
  8
0
  6
CONTINUOUS
 62
     7
 10
170.5368
 20
-150.0
 11
170.5368
 21
-127.5
  0
LINE
  8
0
  6
CONTINUOUS
 62
     7
 10
171.0368
 20
-127.0
 11
184.8368
 21
-127.0
  0
LINE
  8
0
  6
CONTINUOUS
 62
     7
 10
180.7368
 20
-125.8281
 11
180.7368
 21
-126.5
  0
LINE
  8
0
  6
CONTINUOUS
 62
     7
 10
175.1368
 20
-125.8281
 11
175.1368
 21
-126.5
  0
LINE
  8
0
  6
CONTINUOUS
 62
     7
 10
181.1868
 20
-126.5
 11
174.6868
 21
-126.5
  0
LINE
  8
0
  6
CONTINUOUS
 62
     7
 10
181.1868
 20
-126.5
 11
181.1868
 21
-127.0
  0
LINE
  8
0
  6
CONTINUOUS
 62
     7
 10
174.6868
 20
-126.5
 11
174.6868
 21
-127.0
  0
LINE
  8
0
  6
CENTER
 62
     2
 10
167.5368
 20
-134.3999
 11
188.3368
 21
-134.3999
  0
LINE
  8
0
  6
CONTINUOUS
 62
     7
 10
170.5368
 20
-149.5
 11
185.3368
 21
-149.5
  0
LINE
  8
0
  6
CONTINUOUS
 62
     7
 10
332.4368
 20
1.99997
 11
301.4368
 21
1.99997
  0
LINE
  8
0
  6
CONTINUOUS
 62
     7
 10
332.4368
 20
28.19997
 11
332.4368
 21
-50.00003
  0
LINE
  8
0
  6
CONTINUOUS
 62
     7
 10
332.4368
 20
-15.00003
 11
308.4368
 21
-15.00003
  0
LINE
  8
0
  6
CENTER
 62
     2
 10
320.4368
 20
33.19997
 11
320.4368
 21
-52.80003
  0
LINE
  8
0
  6
CONTINUOUS
 62
     7
 10
308.4368
 20
1.99997
 11
308.4368
 21
-50.00003
  0
LINE
  8
0
  6
CONTINUOUS
 62
     7
 10
332.4368
 20
-43.00003
 11
308.4368
 21
-43.00003
  0
LINE
  8
0
  6
CONTINUOUS
 62
     7
 10
331.9368
 20
-50.50003
 11
308.9368
 21
-50.50003
  0
LINE
  8
0
  6
CONTINUOUS
 62
     7
 10
314.1368
 20
-45.50003
 11
308.9368
 21
-45.50003
  0
LINE
  8
0
  6
CENTER
 62
     2
 10
311.4368
 20
-43.70003
 11
311.4368
 21
-53.15004
  0
LINE
  8
0
  6
CONTINUOUS
 62
     7
 10
314.6368
 20
-46.00003
 11
314.6368
 21
-50.00003
  0
LINE
  8
0
  6
CONTINUOUS
 62
     7
 10
314.2368
 20
-46.67184
 11
314.2368
 21
-45.50003
  0
LINE
  8
0
  6
CONTINUOUS
 62
     7
 10
308.6368
 20
-46.67186
 11
308.6368
 21
-45.50003
  0
LINE
  8
0
  6
CENTER
 62
     2
 10
312.8413
 20
-38.00003
 11
307.6113
 21
-38.00003
  0
LINE
  8
0
  6
CONTINUOUS
 62
     7
 10
311.4368
 20
-36.1862
 11
311.4368
 21
-39.81387
  0
LINE
  8
0
  6
CONTINUOUS
 62
     7
 10
311.4368
 20
-36.1862
 11
308.4368
 21
-36.1862
  0
LINE
  8
0
  6
CONTINUOUS
 62
     7
 10
311.4368
 20
-39.81387
 11
308.4368
 21
-39.81387
  0
LINE
  8
0
  6
CONTINUOUS
 62
     7
 10
332.4368
 20
27.19997
 11
305.4368
 21
27.19997
  0
LINE
  8
0
  6
CONTINUOUS
 62
     7
 10
308.4368
 20
28.19997
 11
308.4368
 21
27.19997
  0
LINE
  8
0
  6
CONTINUOUS
 62
     7
 10
309.4368
 20
30.19997
 11
327.6111
 21
30.19997
  0
LINE
  8
0
  6
CONTINUOUS
 62
     7
 10
332.4368
 20
28.19997
 11
308.4368
 21
28.19997
  0
LINE
  8
0
  6
CONTINUOUS
 62
     7
 10
308.4368
 20
28.2
 11
309.4368
 21
30.19999
  0
LINE
  8
0
  6
CONTINUOUS
 62
     7
 10
332.4366
 20
28.19989
 11
331.4366
 21
30.19987
  0
LINE
  8
0
  6
CONTINUOUS
 62
     7
 10
326.4368
 20
30.19997
 11
326.4368
 21
28.19997
  0
LINE
  8
0
  6
CENTER
 62
     2
 10
329.4368
 20
33.19997
 11
329.4368
 21
24.19997
  0
LINE
  8
0
  6
CONTINUOUS
 62
     7
 10
331.9868
 20
28.79997
 11
326.8868
 21
28.79997
  0
LINE
  8
0
  6
CONTINUOUS
 62
     7
 10
329.1365
 20
28.19989
 11
328.9757
 21
28.79988
  0
LINE
  8
0
  6
CONTINUOUS
 62
     7
 10
329.7365
 20
28.7999
 11
329.8972
 21
28.19991
  0
LINE
  8
0
  6
CONTINUOUS
 62
     7
 10
331.9868
 20
28.79997
 11
331.9868
 21
28.19997
  0
LINE
  8
0
  6
CONTINUOUS
 62
     7
 10
326.8868
 20
28.79997
 11
326.8868
 21
28.19997
  0
LINE
  8
0
  6
CONTINUOUS
 62
     7
 10
331.6868
 20
29.49373
 11
331.6868
 21
28.79997
  0
LINE
  8
0
  6
CONTINUOUS
 62
     7
 10
327.1868
 20
29.49373
 11
327.1868
 21
28.79997
  0
LINE
  8
0
  6
CONTINUOUS
 62
     7
 10
331.2626
 20
30.19997
 11
331.4368
 21
30.19997
  0
LINE
  8
0
  6
CENTER
 62
     2
 10
311.4368
 20
33.19997
 11
311.4368
 21
24.19997
  0
LINE
  8
0
  6
CONTINUOUS
 62
     7
 10
305.4368
 20
27.19997
 11
305.4368
 21
1.99997
  0
LINE
  8
0
  6
CONTINUOUS
 62
     7
 10
305.4368
 20
26.99997
 11
301.4368
 21
26.99997
  0
LINE
  8
0
  6
CENTER
 62
     2
 10
308.4368
 20
18.99997
 11
273.0369
 21
18.99997
  0
LINE
  8
0
  6
CONTINUOUS
 62
     7
 10
278.4368
 20
45.17619
 11
278.4368
 21
38.69997
  0
LINE
  8
0
  6
CONTINUOUS
 62
     7
 10
293.2368
 20
45.17621
 11
293.2368
 21
38.69997
  0
LINE
  8
0
  6
CONTINUOUS
 62
     7
 10
291.6368
 20
46.09998
 11
280.0369
 21
46.09998
  0
LINE
  8
0
  6
CONTINUOUS
 62
     7
 10
277.265
 20
16.19997
 11
277.9368
 21
16.19997
  0
LINE
  8
0
  6
CONTINUOUS
 62
     7
 10
277.265
 20
21.79997
 11
277.9368
 21
21.79997
  0
LINE
  8
0
  6
CONTINUOUS
 62
     7
 10
277.9368
 20
15.74997
 11
277.9368
 21
22.24997
  0
LINE
  8
0
  6
CONTINUOUS
 62
     7
 10
277.9368
 20
15.75008
 11
278.4368
 21
15.75008
  0
LINE
  8
0
  6
CONTINUOUS
 62
     7
 10
277.9368
 20
22.24997
 11
278.4368
 21
22.24997
  0
LINE
  8
0
  6
CONTINUOUS
 62
     7
 10
293.2368
 20
38.69997
 11
278.4368
 21
38.69997
  0
LINE
  8
0
  6
CONTINUOUS
 62
     7
 10
293.2368
 20
39.69997
 11
278.4368
 21
39.69997
  0
LINE
  8
0
  6
CENTER
 62
     2
 10
285.8369
 20
49.09998
 11
285.8369
 21
8.59998
  0
LINE
  8
0
  6
CONTINUOUS
 62
     7
 10
290.8369
 20
23.99997
 11
280.8369
 21
23.99997
  0
LINE
  8
0
  6
CONTINUOUS
 62
     7
 10
290.8369
 20
13.99997
 11
280.8369
 21
13.99997
  0
LINE
  8
0
  6
CONTINUOUS
 62
     7
 10
290.8369
 20
23.99997
 11
290.8369
 21
13.99997
  0
LINE
  8
0
  6
CONTINUOUS
 62
     7
 10
280.8369
 20
23.99997
 11
280.8369
 21
13.99997
  0
LINE
  8
0
  6
CONTINUOUS
 62
     7
 10
289.8369
 20
23.99997
 11
289.8369
 21
13.99997
  0
LINE
  8
0
  6
CONTINUOUS
 62
     7
 10
288.8369
 20
23.99997
 11
288.8369
 21
13.99997
  0
LINE
  8
0
  6
CONTINUOUS
 62
     7
 10
287.8369
 20
23.99997
 11
287.8369
 21
13.99997
  0
LINE
  8
0
  6
CONTINUOUS
 62
     7
 10
286.8369
 20
23.99997
 11
286.8369
 21
13.99997
  0
LINE
  8
0
  6
CONTINUOUS
 62
     7
 10
285.8369
 20
23.99997
 11
285.8369
 21
13.99997
  0
LINE
  8
0
  6
CONTINUOUS
 62
     7
 10
284.8369
 20
23.99997
 11
284.8369
 21
13.99997
  0
LINE
  8
0
  6
CONTINUOUS
 62
     7
 10
283.8369
 20
23.99997
 11
283.8369
 21
13.99997
  0
LINE
  8
0
  6
CONTINUOUS
 62
     7
 10
282.8369
 20
23.99997
 11
282.8369
 21
13.99997
  0
LINE
  8
0
  6
CONTINUOUS
 62
     7
 10
281.8369
 20
23.99997
 11
281.8369
 21
13.99997
  0
LINE
  8
0
  6
CONTINUOUS
 62
     7
 10
280.0368
 20
46.09996
 11
278.4368
 21
45.17619
  0
LINE
  8
0
  6
CONTINUOUS
 62
     7
 10
291.6368
 20
46.09999
 11
293.2368
 21
45.17623
  0
LINE
  8
0
  6
CONTINUOUS
 62
     7
 10
289.6975
 20
45.17621
 11
289.6975
 21
39.69997
  0
LINE
  8
0
  6
CONTINUOUS
 62
     7
 10
289.3738
 20
45.17621
 11
289.3738
 21
39.69997
  0
LINE
  8
0
  6
CONTINUOUS
 62
     7
 10
282.2999
 20
45.17621
 11
282.2999
 21
39.69997
  0
LINE
  8
0
  6
CONTINUOUS
 62
     7
 10
281.9761
 20
45.17621
 11
281.9761
 21
39.69997
  0
LINE
  8
0
  6
CONTINUOUS
 62
     7
 10
289.6975
 20
45.17621
 11
289.3738
 21
45.17621
  0
LINE
  8
0
  6
CONTINUOUS
 62
     7
 10
282.2999
 20
45.17621
 11
281.9761
 21
45.17621
  0
LINE
  8
0
  6
CONTINUOUS
 62
     7
 10
301.4368
 20
26.39998
 11
278.9368
 21
26.39998
  0
LINE
  8
0
  6
CONTINUOUS
 62
     7
 10
301.4368
 20
11.59998
 11
278.9368
 21
11.59998
  0
LINE
  8
0
  6
CONTINUOUS
 62
     7
 10
301.4368
 20
26.99997
 11
301.4368
 21
1.99997
  0
LINE
  8
0
  6
CONTINUOUS
 62
     7
 10
293.2368
 20
36.69997
 11
278.4368
 21
36.69997
  0
LINE
  8
0
  6
CONTINUOUS
 62
     7
 10
278.4368
 20
36.69997
 11
278.4368
 21
12.09998
  0
LINE
  8
0
  6
CONTINUOUS
 62
     7
 10
293.2368
 20
36.69997
 11
293.2368
 21
26.39998
  0
LINE
  8
0
  6
CONTINUOUS
 62
     7
 10
291.8369
 20
38.69997
 11
291.8369
 21
36.69997
  0
LINE
  8
0
  6
CONTINUOUS
 62
     7
 10
279.8369
 20
38.69997
 11
279.8369
 21
36.69997
  0
LINE
  8
0
  6
CONTINUOUS
 62
     7
 10
280.5133
 20
38.69997
 11
280.5133
 21
36.69997
  0
LINE
  8
0
  6
CONTINUOUS
 62
     7
 10
291.1603
 20
38.69997
 11
291.1603
 21
36.69997
  0
LINE
  8
0
  6
CONTINUOUS
 62
     7
 10
300.9368
 20
11.59998
 11
300.9368
 21
26.39998
  0
LINE
  8
0
  6
CONTINUOUS
 62
     7
 10
-197.4368
 20
28.2
 11
-197.4368
 21
-50.0
  0
LINE
  8
0
  6
CONTINUOUS
 62
     7
 10
-182.4368
 20
28.2
 11
-182.4368
 21
-50.0
  0
LINE
  8
0
  6
CONTINUOUS
 62
     7
 10
-197.4368
 20
2.0
 11
-182.4368
 21
2.0
  0
LINE
  8
0
  6
CONTINUOUS
 62
     7
 10
-197.4368
 20
-15.0
 11
-182.4368
 21
-15.0
  0
LINE
  8
0
  6
CENTER
 62
     2
 10
-189.9368
 20
48.66666
 11
-189.9368
 21
-52.49854
  0
LINE
  8
0
  6
CENTER
 62
     2
 10
-192.3217
 20
-1.5
 11
-187.4751
 21
-1.5
  0
LINE
  8
0
  6
CONTINUOUS
 62
     7
 10
-197.4368
 20
-43.0
 11
-182.4368
 21
-43.0
  0
LINE
  8
0
  6
CONTINUOUS
 62
     7
 10
-196.9368
 20
-50.5
 11
-182.9368
 21
-50.5
  0
LINE
  8
0
  6
CONTINUOUS
 62
     7
 10
-196.9368
 20
-45.5
 11
-191.7368
 21
-45.5
  0
LINE
  8
0
  6
CENTER
 62
     2
 10
-194.4368
 20
-44.14999
 11
-194.4368
 21
-52.49854
  0
LINE
  8
0
  6
CONTINUOUS
 62
     7
 10
-191.2368
 20
-46.0
 11
-191.2368
 21
-50.0
  0
LINE
  8
0
  6
CENTER
 62
     2
 10
-190.3974
 20
-24.0
 11
-183.3567
 21
-24.0
  0
LINE
  8
0
  6
CENTER
 62
     2
 10
-186.9368
 20
-20.70221
 11
-186.9368
 21
-27.32877
  0
LINE
  8
0
  6
CENTER
 62
     2
 10
-198.0076
 20
-20.0
 11
-191.8987
 21
-20.0
  0
LINE
  8
0
  6
CENTER
 62
     2
 10
-187.7053
 20
-38.0
 11
-181.8553
 21
-38.0
  0
LINE
  8
0
  6
CENTER
 62
     2
 10
-184.4368
 20
-34.47301
 11
-184.4368
 21
-41.41017
  0
LINE
  8
0
  6
CENTER
 62
     2
 10
-195.4368
 20
-16.56061
 11
-195.4368
 21
-23.34247
  0
LINE
  8
0
  6
CONTINUOUS
 62
     7
 10
-197.2368
 20
-46.67183
 11
-197.2368
 21
-45.5
  0
LINE
  8
0
  6
CONTINUOUS
 62
     7
 10
-191.6368
 20
-46.67183
 11
-191.6368
 21
-45.5
  0
LINE
  8
0
  6
CONTINUOUS
 62
     7
 10
-197.4368
 20
27.20001
 11
-197.3368
 21
27.20001
  0
LINE
  8
0
  6
CONTINUOUS
 62
     7
 10
-197.4368
 20
28.19998
 11
-197.3368
 21
28.19998
  0
LINE
  8
0
  6
CONTINUOUS
 62
     7
 10
-182.4368
 20
28.20002
 11
-182.5368
 21
28.40001
  0
LINE
  8
0
  6
CONTINUOUS
 62
     7
 10
-197.4368
 20
28.19999
 11
-197.3368
 21
28.39997
  0
LINE
  8
0
  6
CONTINUOUS
 62
     7
 10
-196.8368
 20
26.39999
 11
-183.0368
 21
26.39999
  0
LINE
  8
0
  6
CONTINUOUS
 62
     7
 10
-196.8368
 20
11.60001
 11
-183.0368
 21
11.60001
  0
LINE
  8
0
  6
CENTER
 62
     2
 10
-200.4368
 20
19.0
 11
-179.4368
 21
19.0
  0
LINE
  8
0
  6
CONTINUOUS
 62
     7
 10
-191.2096
 20
18.15146
 11
-190.7853
 21
18.57573
  0
LINE
  8
0
  6
CONTINUOUS
 62
     7
 10
-190.7853
 20
17.7272
 11
-190.361
 21
18.15146
  0
LINE
  8
0
  6
CONTINUOUS
 62
     7
 10
-191.2095
 20
18.15147
 11
-190.7853
 21
17.72721
  0
LINE
  8
0
  6
CONTINUOUS
 62
     7
 10
-189.0882
 20
20.27278
 11
-188.664
 21
19.84851
  0
LINE
  8
0
  6
CONTINUOUS
 62
     7
 10
-192.1174
 20
20.75639
 11
-190.7853
 21
19.42428
  0
LINE
  8
0
  6
CONTINUOUS
 62
     7
 10
-191.6932
 20
21.18065
 11
-190.3611
 21
19.84855
  0
LINE
  8
0
  6
CONTINUOUS
 62
     7
 10
-189.5125
 20
19.84852
 11
-189.0883
 21
20.27278
  0
LINE
  8
0
  6
CONTINUOUS
 62
     7
 10
-189.0883
 20
19.42425
 11
-188.664
 21
19.84852
  0
LINE
  8
0
  6
CONTINUOUS
 62
     7
 10
-189.5125
 20
18.1515
 11
-188.1804
 21
16.81939
  0
LINE
  8
0
  6
CONTINUOUS
 62
     7
 10
-189.0883
 20
18.57576
 11
-187.7561
 21
17.24365
  0
LINE
  8
0
  6
CONTINUOUS
 62
     7
 10
-197.3368
 20
38.7
 11
-182.5368
 21
38.7
  0
LINE
  8
0
  6
CONTINUOUS
 62
     7
 10
-195.7368
 20
46.10001
 11
-184.1368
 21
46.10001
  0
LINE
  8
0
  6
CONTINUOUS
 62
     7
 10
-197.3368
 20
39.7
 11
-182.5368
 21
39.7
  0
LINE
  8
0
  6
CONTINUOUS
 62
     7
 10
-182.5368
 20
39.7
 11
-182.5368
 21
38.7
  0
LINE
  8
0
  6
CONTINUOUS
 62
     7
 10
-197.3368
 20
39.7
 11
-197.3368
 21
38.7
  0
LINE
  8
0
  6
CONTINUOUS
 62
     7
 10
-196.4368
 20
45.69586
 11
-196.4368
 21
39.7
  0
LINE
  8
0
  6
CONTINUOUS
 62
     7
 10
-183.4368
 20
45.69586
 11
-183.4368
 21
39.7
  0
LINE
  8
0
  6
CONTINUOUS
 62
     7
 10
-184.1368
 20
46.10003
 11
-183.4368
 21
45.69589
  0
LINE
  8
0
  6
CONTINUOUS
 62
     7
 10
-195.7368
 20
46.10002
 11
-196.4368
 21
45.69587
  0
LINE
  8
0
  6
CONTINUOUS
 62
     7
 10
-190.1237
 20
45.17624
 11
-189.7499
 21
45.17624
  0
LINE
  8
0
  6
CONTINUOUS
 62
     7
 10
-182.5368
 20
28.19998
 11
-182.4368
 21
28.19998
  0
LINE
  8
0
  6
CONTINUOUS
 62
     7
 10
-182.5368
 20
27.20001
 11
-182.4368
 21
27.20001
  0
LINE
  8
0
  6
CONTINUOUS
 62
     7
 10
-189.7499
 20
45.17624
 11
-189.7499
 21
39.7
  0
LINE
  8
0
  6
CONTINUOUS
 62
     7
 10
-190.1237
 20
45.17624
 11
-190.1237
 21
39.7
  0
LINE
  8
0
  6
CONTINUOUS
 62
     7
 10
-197.3368
 20
36.7
 11
-182.5368
 21
36.7
  0
LINE
  8
0
  6
CONTINUOUS
 62
     7
 10
-197.3368
 20
36.7
 11
-197.3368
 21
12.10001
  0
LINE
  8
0
  6
CONTINUOUS
 62
     7
 10
-182.5368
 20
36.7
 11
-182.5368
 21
12.10001
  0
LINE
  8
0
  6
CONTINUOUS
 62
     7
 10
-183.9368
 20
38.7
 11
-183.9368
 21
36.7
  0
LINE
  8
0
  6
CONTINUOUS
 62
     7
 10
-195.9368
 20
38.7
 11
-195.9368
 21
36.7
  0
LINE
  8
0
  6
CONTINUOUS
 62
     7
 10
-184.6133
 20
38.7
 11
-184.6133
 21
36.7
  0
LINE
  8
0
  6
CONTINUOUS
 62
     7
 10
-195.2603
 20
38.7
 11
-195.2603
 21
36.7
  0
LINE
  8
0
  6
CENTER
 62
     2
 10
-199.8851
 20
133.0
 11
-179.949
 21
133.0
  0
LINE
  8
0
  6
CONTINUOUS
 62
     7
 10
-182.4368
 20
121.0
 11
-197.4368
 21
121.0
  0
LINE
  8
0
  6
CONTINUOUS
 62
     7
 10
-191.4368
 20
124.0
 11
-191.4368
 21
121.0
  0
LINE
  8
0
  6
CONTINUOUS
 62
     7
 10
-188.4368
 20
142.0
 11
-188.4368
 21
145.0
  0
LINE
  8
0
  6
CONTINUOUS
 62
     7
 10
-185.4368
 20
139.0
 11
-182.4368
 21
139.0
  0
LINE
  8
0
  6
CONTINUOUS
 62
     7
 10
-194.4368
 20
127.0
 11
-197.4368
 21
127.0
  0
LINE
  8
0
  6
CONTINUOUS
 62
     7
 10
-188.4368
 20
144.0
 11
-196.4368
 21
144.0
  0
LINE
  8
0
  6
CONTINUOUS
 62
     7
 10
-183.4368
 20
122.0
 11
-191.4368
 21
122.0
  0
LINE
  8
0
  6
CONTINUOUS
 62
     7
 10
-183.4368
 20
139.0
 11
-183.4368
 21
122.0
  0
LINE
  8
0
  6
CONTINUOUS
 62
     7
 10
-196.4368
 20
144.0
 11
-196.4368
 21
127.0
  0
LINE
  8
0
  6
CONTINUOUS
 62
     7
 10
-196.6667
 20
123.7
 11
-196.9691
 21
123.7
  0
LINE
  8
0
  6
CONTINUOUS
 62
     7
 10
-196.6667
 20
124.3
 11
-196.9691
 21
124.3
  0
LINE
  8
0
  6
CONTINUOUS
 62
     7
 10
-196.9448
 20
124.4608
 11
-196.6391
 21
124.4608
  0
LINE
  8
0
  6
CONTINUOUS
 62
     7
 10
-183.2069
 20
142.3
 11
-182.9045
 21
142.3
  0
LINE
  8
0
  6
CONTINUOUS
 62
     7
 10
-183.2069
 20
141.7
 11
-182.9045
 21
141.7
  0
LINE
  8
0
  6
CONTINUOUS
 62
     7
 10
-182.9288
 20
141.5392
 11
-183.2345
 21
141.5392
  0
LINE
  8
0
  6
CONTINUOUS
 62
     7
 10
-195.1722
 20
125.1031
 11
-194.8045
 21
124.7354
  0
LINE
  8
0
  6
CONTINUOUS
 62
     7
 10
-195.5399
 20
124.7354
 11
-195.1722
 21
124.3677
  0
LINE
  8
0
  6
CONTINUOUS
 62
     7
 10
-195.1722
 20
125.1031
 11
-195.5399
 21
124.7354
  0
LINE
  8
0
  6
CONTINUOUS
 62
     7
 10
-193.3337
 20
123.2646
 11
-193.7014
 21
122.8969
  0
LINE
  8
0
  6
CONTINUOUS
 62
     7
 10
-193.0403
 20
125.7642
 11
-194.0691
 21
124.7354
  0
LINE
  8
0
  6
CONTINUOUS
 62
     7
 10
-192.6726
 20
125.3965
 11
-193.7014
 21
124.3677
  0
LINE
  8
0
  6
CONTINUOUS
 62
     7
 10
-193.7014
 20
123.6323
 11
-193.3337
 21
123.2646
  0
LINE
  8
0
  6
CONTINUOUS
 62
     7
 10
-194.0691
 20
123.2646
 11
-193.7014
 21
122.8969
  0
LINE
  8
0
  6
CONTINUOUS
 62
     7
 10
-195.1722
 20
123.6323
 11
-196.201
 21
122.6035
  0
LINE
  8
0
  6
CONTINUOUS
 62
     7
 10
-194.8045
 20
123.2646
 11
-195.8333
 21
122.2358
  0
LINE
  8
0
  6
CONTINUOUS
 62
     7
 10
-186.1722
 20
143.1031
 11
-185.8045
 21
142.7354
  0
LINE
  8
0
  6
CONTINUOUS
 62
     7
 10
-186.5399
 20
142.7354
 11
-186.1722
 21
142.3677
  0
LINE
  8
0
  6
CONTINUOUS
 62
     7
 10
-186.1722
 20
143.1031
 11
-186.5399
 21
142.7354
  0
LINE
  8
0
  6
CONTINUOUS
 62
     7
 10
-184.3337
 20
141.2646
 11
-184.7014
 21
140.8969
  0
LINE
  8
0
  6
CONTINUOUS
 62
     7
 10
-184.0403
 20
143.7642
 11
-185.0691
 21
142.7354
  0
LINE
  8
0
  6
CONTINUOUS
 62
     7
 10
-183.6726
 20
143.3965
 11
-184.7014
 21
142.3677
  0
LINE
  8
0
  6
CONTINUOUS
 62
     7
 10
-184.7014
 20
141.6323
 11
-184.3337
 21
141.2646
  0
LINE
  8
0
  6
CONTINUOUS
 62
     7
 10
-185.0691
 20
141.2646
 11
-184.7014
 21
140.8969
  0
LINE
  8
0
  6
CONTINUOUS
 62
     7
 10
-186.1722
 20
141.6323
 11
-187.201
 21
140.6035
  0
LINE
  8
0
  6
CONTINUOUS
 62
     7
 10
-185.8045
 20
141.2646
 11
-186.8333
 21
140.2358
  0
LINE
  8
0
  6
CENTER
 62
     2
 10
-190.4368
 20
124.0
 11
-198.4368
 21
124.0
  0
LINE
  8
0
  6
CENTER
 62
     2
 10
-181.4368
 20
142.0
 11
-189.4368
 21
142.0
  0
LINE
  8
0
  6
CENTER
 62
     2
 10
-185.4368
 20
146.0
 11
-185.4368
 21
138.0
  0
LINE
  8
0
  6
CENTER
 62
     2
 10
-194.4368
 20
128.0
 11
-194.4368
 21
120.0
  0
LINE
  8
0
  6
CONTINUOUS
 62
     7
 10
-182.4368
 20
144.5
 11
-182.4368
 21
114.0
  0
LINE
  8
0
  6
CONTINUOUS
 62
     7
 10
-182.9368
 20
145.0
 11
-196.9368
 21
145.0
  0
LINE
  8
0
  6
CONTINUOUS
 62
     7
 10
-197.4368
 20
144.5
 11
-197.4368
 21
114.0
  0
LINE
  8
0
  6
CONTINUOUS
 62
     7
 10
-182.4368
 20
118.0
 11
-197.4368
 21
118.0
  0
LINE
  8
0
  6
CONTINUOUS
 62
     7
 10
-182.4368
 20
114.0
 11
-197.4368
 21
114.0
  0
LINE
  8
0
  6
CENTER
 62
     2
 10
-179.5368
 20
98.40001
 11
-200.3368
 21
98.40001
  0
LINE
  8
0
  6
CONTINUOUS
 62
     7
 10
-183.4368
 20
101.937
 11
-183.4368
 21
94.86305
  0
LINE
  8
0
  6
CONTINUOUS
 62
     7
 10
-196.4368
 20
101.937
 11
-196.4368
 21
94.86305
  0
LINE
  8
0
  6
CONTINUOUS
 62
     7
 10
-183.6237
 20
94.5393
 11
-189.7499
 21
91.00235
  0
LINE
  8
0
  6
CONTINUOUS
 62
     7
 10
-190.1237
 20
105.7976
 11
-196.2499
 21
102.2607
  0
LINE
  8
0
  6
CONTINUOUS
 62
     7
 10
-190.1237
 20
91.00235
 11
-196.2499
 21
94.5393
  0
LINE
  8
0
  6
CONTINUOUS
 62
     7
 10
-183.6237
 20
102.2607
 11
-189.7499
 21
105.7977
  0
LINE
  8
0
  6
CONTINUOUS
 62
     7
 10
-183.0368
 20
91.0
 11
-196.8368
 21
91.0
  0
LINE
  8
0
  6
CONTINUOUS
 62
     7
 10
-192.7368
 20
89.82817
 11
-192.7368
 21
90.5
  0
LINE
  8
0
  6
CONTINUOUS
 62
     7
 10
-187.1368
 20
89.82819
 11
-187.1368
 21
90.5
  0
LINE
  8
0
  6
CONTINUOUS
 62
     7
 10
-186.6868
 20
90.5
 11
-186.6868
 21
91.0
  0
LINE
  8
0
  6
CONTINUOUS
 62
     7
 10
-193.1868
 20
90.5
 11
-186.6868
 21
90.5
  0
LINE
  8
0
  6
CONTINUOUS
 62
     7
 10
-193.1868
 20
90.5
 11
-193.1868
 21
91.0
  0
LINE
  8
0
  6
CONTINUOUS
 62
     7
 10
-197.3368
 20
114.0
 11
-197.3368
 21
91.5
  0
LINE
  8
0
  6
CONTINUOUS
 62
     7
 10
-182.5368
 20
114.0
 11
-182.5368
 21
91.5
  0
LINE
  8
0
  6
CONTINUOUS
 62
     7
 10
-182.5368
 20
113.5
 11
-197.3368
 21
113.5
  0
LINE
  8
0
  6
CENTER
 62
     2
 10
-189.9368
 20
146.7183
 11
-189.9368
 21
86.04869
  0
LINE
  8
0
  6
CONTINUOUS
 62
     7
 10
-345.4368
 20
1.99997
 11
-314.4368
 21
1.99997
  0
LINE
  8
0
  6
CONTINUOUS
 62
     7
 10
-345.4368
 20
28.19997
 11
-345.4368
 21
-50.00003
  0
LINE
  8
0
  6
CONTINUOUS
 62
     7
 10
-345.4368
 20
-15.00003
 11
-321.4368
 21
-15.00003
  0
LINE
  8
0
  6
CENTER
 62
     2
 10
-333.4368
 20
32.99997
 11
-333.4368
 21
-52.80002
  0
LINE
  8
0
  6
CONTINUOUS
 62
     7
 10
-321.4368
 20
1.99997
 11
-321.4368
 21
-50.00003
  0
LINE
  8
0
  6
CONTINUOUS
 62
     7
 10
-327.1368
 20
-45.50003
 11
-321.9368
 21
-45.50003
  0
LINE
  8
0
  6
CENTER
 62
     2
 10
-324.4368
 20
-43.70003
 11
-324.4368
 21
-53.15002
  0
LINE
  8
0
  6
CONTINUOUS
 62
     7
 10
-327.2368
 20
-46.67184
 11
-327.2368
 21
-45.50003
  0
LINE
  8
0
  6
CONTINUOUS
 62
     7
 10
-321.6368
 20
-46.67184
 11
-321.6368
 21
-45.50003
  0
LINE
  8
0
  6
CONTINUOUS
 62
     7
 10
-345.4368
 20
-43.00003
 11
-321.4368
 21
-43.00003
  0
LINE
  8
0
  6
CONTINUOUS
 62
     7
 10
-344.9368
 20
-50.50003
 11
-321.9368
 21
-50.50003
  0
LINE
  8
0
  6
CONTINUOUS
 62
     7
 10
-327.1368
 20
-45.50003
 11
-321.9368
 21
-45.50003
  0
LINE
  8
0
  6
CONTINUOUS
 62
     7
 10
-327.6368
 20
-46.00003
 11
-327.6368
 21
-50.00003
  0
LINE
  8
0
  6
CENTER
 62
     2
 10
-325.8412
 20
-20.00003
 11
-320.6112
 21
-20.00003
  0
LINE
  8
0
  6
CONTINUOUS
 62
     7
 10
-324.4368
 20
-18.18619
 11
-324.4368
 21
-21.81387
  0
LINE
  8
0
  6
CONTINUOUS
 62
     7
 10
-324.4368
 20
-18.18619
 11
-321.4368
 21
-18.18619
  0
LINE
  8
0
  6
CONTINUOUS
 62
     7
 10
-324.4368
 20
-21.81387
 11
-321.4368
 21
-21.81387
  0
LINE
  8
0
  6
CONTINUOUS
 62
     7
 10
-345.4368
 20
27.19998
 11
-318.4368
 21
27.19998
  0
LINE
  8
0
  6
CONTINUOUS
 62
     7
 10
-321.4368
 20
28.19995
 11
-321.4368
 21
27.19998
  0
LINE
  8
0
  6
CONTINUOUS
 62
     7
 10
-344.4368
 20
30.19998
 11
-326.2625
 21
30.19998
  0
LINE
  8
0
  6
CONTINUOUS
 62
     7
 10
-345.4368
 20
28.19998
 11
-321.4368
 21
28.19998
  0
LINE
  8
0
  6
CONTINUOUS
 62
     7
 10
-345.4368
 20
28.19995
 11
-344.4368
 21
30.19996
  0
LINE
  8
0
  6
CONTINUOUS
 62
     7
 10
-321.4368
 20
28.19995
 11
-322.4368
 21
30.19996
  0
LINE
  8
0
  6
CONTINUOUS
 62
     7
 10
-327.4368
 20
30.19998
 11
-327.4368
 21
28.19998
  0
LINE
  8
0
  6
CENTER
 62
     2
 10
-324.4368
 20
33.19998
 11
-324.4368
 21
24.19998
  0
LINE
  8
0
  6
CONTINUOUS
 62
     7
 10
-321.8868
 20
28.79997
 11
-326.9868
 21
28.79997
  0
LINE
  8
0
  6
CONTINUOUS
 62
     7
 10
-324.7368
 20
28.19996
 11
-324.8975
 21
28.79997
  0
LINE
  8
0
  6
CONTINUOUS
 62
     7
 10
-324.1368
 20
28.79994
 11
-323.9761
 21
28.19995
  0
LINE
  8
0
  6
CONTINUOUS
 62
     7
 10
-321.8868
 20
28.79997
 11
-321.8868
 21
28.19998
  0
LINE
  8
0
  6
CONTINUOUS
 62
     7
 10
-326.9868
 20
28.79997
 11
-326.9868
 21
28.19998
  0
LINE
  8
0
  6
CONTINUOUS
 62
     7
 10
-322.1868
 20
29.49371
 11
-322.1868
 21
28.79997
  0
LINE
  8
0
  6
CONTINUOUS
 62
     7
 10
-326.6868
 20
29.49371
 11
-326.6868
 21
28.79997
  0
LINE
  8
0
  6
CONTINUOUS
 62
     7
 10
-322.611
 20
30.19998
 11
-322.4368
 21
30.19998
  0
LINE
  8
0
  6
CENTER
 62
     2
 10
-342.4368
 20
33.19998
 11
-342.4368
 21
24.19998
  0
LINE
  8
0
  6
CONTINUOUS
 62
     7
 10
-318.4368
 20
27.19998
 11
-318.4368
 21
1.99997
  0
LINE
  8
0
  6
CONTINUOUS
 62
     7
 10
-318.4368
 20
26.99997
 11
-314.4368
 21
26.99997
  0
LINE
  8
0
  6
CENTER
 62
     2
 10
-321.4368
 20
18.99997
 11
-286.0368
 21
18.99997
  0
LINE
  8
0
  6
CONTINUOUS
 62
     7
 10
-291.4368
 20
45.17619
 11
-291.4368
 21
38.69997
  0
LINE
  8
0
  6
CONTINUOUS
 62
     7
 10
-314.4368
 20
11.59998
 11
-291.9368
 21
11.59998
  0
LINE
  8
0
  6
CONTINUOUS
 62
     7
 10
-314.4368
 20
26.39996
 11
-291.9368
 21
26.39996
  0
LINE
  8
0
  6
CONTINUOUS
 62
     7
 10
-306.2368
 20
45.17621
 11
-306.2368
 21
38.69997
  0
LINE
  8
0
  6
CONTINUOUS
 62
     7
 10
-304.6368
 20
46.09998
 11
-293.0368
 21
46.09998
  0
LINE
  8
0
  6
CONTINUOUS
 62
     7
 10
-290.265
 20
16.19998
 11
-290.9368
 21
16.19998
  0
LINE
  8
0
  6
CONTINUOUS
 62
     7
 10
-290.265
 20
21.79999
 11
-290.9368
 21
21.79999
  0
LINE
  8
0
  6
CONTINUOUS
 62
     7
 10
-290.9368
 20
15.74997
 11
-290.9368
 21
22.24997
  0
LINE
  8
0
  6
CONTINUOUS
 62
     7
 10
-290.9368
 20
15.74998
 11
-291.4368
 21
15.74998
  0
LINE
  8
0
  6
CONTINUOUS
 62
     7
 10
-290.9368
 20
22.24998
 11
-291.4368
 21
22.24998
  0
LINE
  8
0
  6
CONTINUOUS
 62
     7
 10
-306.2368
 20
38.69997
 11
-291.4368
 21
38.69997
  0
LINE
  8
0
  6
CONTINUOUS
 62
     7
 10
-306.2368
 20
39.69997
 11
-291.4368
 21
39.69997
  0
LINE
  8
0
  6
CONTINUOUS
 62
     7
 10
-303.8368
 20
23.99997
 11
-293.8368
 21
23.99997
  0
LINE
  8
0
  6
CONTINUOUS
 62
     7
 10
-303.8368
 20
13.99997
 11
-293.8368
 21
13.99997
  0
LINE
  8
0
  6
CONTINUOUS
 62
     7
 10
-303.8368
 20
23.99997
 11
-303.8368
 21
13.99997
  0
LINE
  8
0
  6
CONTINUOUS
 62
     7
 10
-293.8368
 20
23.99997
 11
-293.8368
 21
13.99997
  0
LINE
  8
0
  6
CONTINUOUS
 62
     7
 10
-302.8368
 20
23.99997
 11
-302.8368
 21
13.99997
  0
LINE
  8
0
  6
CONTINUOUS
 62
     7
 10
-301.8368
 20
23.99997
 11
-301.8368
 21
13.99997
  0
LINE
  8
0
  6
CONTINUOUS
 62
     7
 10
-300.8368
 20
23.99997
 11
-300.8368
 21
13.99997
  0
LINE
  8
0
  6
CONTINUOUS
 62
     7
 10
-299.8368
 20
23.99997
 11
-299.8368
 21
13.99997
  0
LINE
  8
0
  6
CONTINUOUS
 62
     7
 10
-298.8368
 20
23.99997
 11
-298.8368
 21
13.99997
  0
LINE
  8
0
  6
CONTINUOUS
 62
     7
 10
-297.8368
 20
23.99997
 11
-297.8368
 21
13.99997
  0
LINE
  8
0
  6
CONTINUOUS
 62
     7
 10
-296.8368
 20
23.99997
 11
-296.8368
 21
13.99997
  0
LINE
  8
0
  6
CONTINUOUS
 62
     7
 10
-295.8368
 20
23.99997
 11
-295.8368
 21
13.99997
  0
LINE
  8
0
  6
CONTINUOUS
 62
     7
 10
-294.8368
 20
23.99997
 11
-294.8368
 21
13.99997
  0
LINE
  8
0
  6
CONTINUOUS
 62
     7
 10
-293.0368
 20
46.09994
 11
-291.4368
 21
45.17617
  0
LINE
  8
0
  6
CONTINUOUS
 62
     7
 10
-304.6368
 20
46.09998
 11
-306.2368
 21
45.17622
  0
LINE
  8
0
  6
CONTINUOUS
 62
     7
 10
-302.6974
 20
45.17621
 11
-302.6974
 21
39.69997
  0
LINE
  8
0
  6
CONTINUOUS
 62
     7
 10
-302.3737
 20
45.17621
 11
-302.3737
 21
39.69997
  0
LINE
  8
0
  6
CONTINUOUS
 62
     7
 10
-295.2998
 20
45.17621
 11
-295.2998
 21
39.69997
  0
LINE
  8
0
  6
CONTINUOUS
 62
     7
 10
-294.9761
 20
45.17621
 11
-294.9761
 21
39.69997
  0
LINE
  8
0
  6
CONTINUOUS
 62
     7
 10
-302.6974
 20
45.17621
 11
-302.3737
 21
45.17621
  0
LINE
  8
0
  6
CONTINUOUS
 62
     7
 10
-295.2998
 20
45.17621
 11
-294.9761
 21
45.17621
  0
LINE
  8
0
  6
CENTER
 62
     2
 10
-298.8368
 20
49.09998
 11
-298.8368
 21
8.59998
  0
LINE
  8
0
  6
CONTINUOUS
 62
     7
 10
-314.4368
 20
26.99997
 11
-314.4368
 21
1.99997
  0
LINE
  8
0
  6
CONTINUOUS
 62
     7
 10
-306.2368
 20
36.69997
 11
-291.4368
 21
36.69997
  0
LINE
  8
0
  6
CONTINUOUS
 62
     7
 10
-306.2368
 20
36.69997
 11
-306.2368
 21
26.39996
  0
LINE
  8
0
  6
CONTINUOUS
 62
     7
 10
-291.4368
 20
36.69997
 11
-291.4368
 21
12.09998
  0
LINE
  8
0
  6
CONTINUOUS
 62
     7
 10
-292.8368
 20
38.69997
 11
-292.8368
 21
36.69997
  0
LINE
  8
0
  6
CONTINUOUS
 62
     7
 10
-304.8368
 20
38.69997
 11
-304.8368
 21
36.69997
  0
LINE
  8
0
  6
CONTINUOUS
 62
     7
 10
-293.5133
 20
38.69997
 11
-293.5133
 21
36.69997
  0
LINE
  8
0
  6
CONTINUOUS
 62
     7
 10
-304.1603
 20
38.69997
 11
-304.1603
 21
36.69997
  0
LINE
  8
0
  6
CONTINUOUS
 62
     7
 10
-313.9368
 20
11.59998
 11
-313.9368
 21
26.39998
  0
LINE
  8
0
  6
CONTINUOUS
 62
     7
 10
-35.43675
 20
2.0
 11
-66.43675
 21
2.0
  0
LINE
  8
0
  6
CONTINUOUS
 62
     7
 10
-35.43675
 20
28.0
 11
-35.43675
 21
-50.0
  0
LINE
  8
0
  6
CONTINUOUS
 62
     7
 10
-35.43675
 20
-15.0
 11
-59.43675
 21
-15.0
  0
LINE
  8
0
  6
CENTER
 62
     2
 10
-47.43675
 20
33.0
 11
-47.43675
 21
-52.80002
  0
LINE
  8
0
  6
CONTINUOUS
 62
     7
 10
-59.43675
 20
2.0
 11
-59.43675
 21
-50.0
  0
LINE
  8
0
  6
CONTINUOUS
 62
     7
 10
-35.43675
 20
-43.0
 11
-59.43675
 21
-43.0
  0
LINE
  8
0
  6
CONTINUOUS
 62
     7
 10
-35.93675
 20
-50.5
 11
-58.93675
 21
-50.5
  0
LINE
  8
0
  6
CONTINUOUS
 62
     7
 10
-41.13675
 20
-45.5
 11
-35.93675
 21
-45.5
  0
LINE
  8
0
  6
CENTER
 62
     2
 10
-38.43675
 20
-43.7
 11
-38.43675
 21
-53.14999
  0
LINE
  8
0
  6
CONTINUOUS
 62
     7
 10
-41.63675
 20
-46.0
 11
-41.63675
 21
-50.0
  0
LINE
  8
0
  6
CONTINUOUS
 62
     7
 10
-41.23674
 20
-46.67183
 11
-41.23674
 21
-45.5
  0
LINE
  8
0
  6
CONTINUOUS
 62
     7
 10
-35.63675
 20
-46.67183
 11
-35.63675
 21
-45.5
  0
LINE
  8
0
  6
CENTER
 62
     2
 10
-55.03227
 20
-37.99998
 11
-60.26231
 21
-37.99998
  0
LINE
  8
0
  6
CONTINUOUS
 62
     7
 10
-56.43675
 20
-36.18616
 11
-56.43675
 21
-39.81383
  0
LINE
  8
0
  6
CONTINUOUS
 62
     7
 10
-56.43675
 20
-36.18616
 11
-59.43675
 21
-36.18616
  0
LINE
  8
0
  6
CONTINUOUS
 62
     7
 10
-56.43675
 20
-39.81383
 11
-59.43675
 21
-39.81383
  0
LINE
  8
0
  6
CONTINUOUS
 62
     7
 10
-58.93675
 20
-50.5
 11
-35.93675
 21
-50.5
  0
LINE
  8
0
  6
CONTINUOUS
 62
     7
 10
-35.63675
 20
-46.67183
 11
-35.63675
 21
-45.5
  0
LINE
  8
0
  6
CONTINUOUS
 62
     7
 10
-35.43675
 20
27.20001
 11
-62.43675
 21
27.20001
  0
LINE
  8
0
  6
CONTINUOUS
 62
     7
 10
-59.43675
 20
28.20001
 11
-59.43675
 21
27.20001
  0
LINE
  8
0
  6
CONTINUOUS
 62
     7
 10
-58.43675
 20
30.20001
 11
-40.26253
 21
30.20001
  0
LINE
  8
0
  6
CONTINUOUS
 62
     7
 10
-35.43675
 20
28.20001
 11
-59.43675
 21
28.20001
  0
LINE
  8
0
  6
CONTINUOUS
 62
     7
 10
-59.43675
 20
28.2
 11
-58.43675
 21
30.2
  0
LINE
  8
0
  6
CONTINUOUS
 62
     7
 10
-35.43679
 20
28.2
 11
-36.43678
 21
30.19999
  0
LINE
  8
0
  6
CONTINUOUS
 62
     7
 10
-41.43675
 20
30.20001
 11
-41.43675
 21
28.20001
  0
LINE
  8
0
  6
CENTER
 62
     2
 10
-38.43675
 20
33.20001
 11
-38.43675
 21
24.20001
  0
LINE
  8
0
  6
CONTINUOUS
 62
     7
 10
-35.88676
 20
28.8
 11
-40.98674
 21
28.8
  0
LINE
  8
0
  6
CONTINUOUS
 62
     7
 10
-38.73674
 20
28.20001
 11
-38.89751
 21
28.80002
  0
LINE
  8
0
  6
CONTINUOUS
 62
     7
 10
-38.13677
 20
28.79999
 11
-37.97599
 21
28.2
  0
LINE
  8
0
  6
CONTINUOUS
 62
     7
 10
-35.88676
 20
28.8
 11
-35.88676
 21
28.20001
  0
LINE
  8
0
  6
CONTINUOUS
 62
     7
 10
-40.98674
 20
28.8
 11
-40.98674
 21
28.20001
  0
LINE
  8
0
  6
CONTINUOUS
 62
     7
 10
-36.18675
 20
29.49374
 11
-36.18675
 21
28.8
  0
LINE
  8
0
  6
CONTINUOUS
 62
     7
 10
-40.68675
 20
29.49374
 11
-40.68675
 21
28.8
  0
LINE
  8
0
  6
CONTINUOUS
 62
     7
 10
-36.61098
 20
30.20001
 11
-36.43675
 21
30.20001
  0
LINE
  8
0
  6
CENTER
 62
     2
 10
-56.43675
 20
33.20001
 11
-56.43675
 21
24.20001
  0
LINE
  8
0
  6
CONTINUOUS
 62
     7
 10
-62.43675
 20
27.20001
 11
-62.43675
 21
2.0
  0
LINE
  8
0
  6
CONTINUOUS
 62
     7
 10
-62.43675
 20
27.0
 11
-66.43675
 21
27.0
  0
LINE
  8
0
  6
CENTER
 62
     2
 10
-59.43675
 20
19.0
 11
-94.83675
 21
19.0
  0
LINE
  8
0
  6
CONTINUOUS
 62
     7
 10
-89.43675
 20
45.17624
 11
-89.43675
 21
38.7
  0
LINE
  8
0
  6
CONTINUOUS
 62
     7
 10
-74.63675
 20
45.17624
 11
-74.63675
 21
38.7
  0
LINE
  8
0
  6
CONTINUOUS
 62
     7
 10
-76.23676
 20
46.10001
 11
-87.83675
 21
46.10001
  0
LINE
  8
0
  6
CONTINUOUS
 62
     7
 10
-90.60858
 20
16.20001
 11
-89.93675
 21
16.20001
  0
LINE
  8
0
  6
CONTINUOUS
 62
     7
 10
-90.60858
 20
21.8
 11
-89.93675
 21
21.8
  0
LINE
  8
0
  6
CONTINUOUS
 62
     7
 10
-89.93675
 20
15.75
 11
-89.93675
 21
22.25
  0
LINE
  8
0
  6
CONTINUOUS
 62
     7
 10
-89.93675
 20
15.75011
 11
-89.43675
 21
15.75011
  0
LINE
  8
0
  6
CONTINUOUS
 62
     7
 10
-89.93675
 20
22.25
 11
-89.43675
 21
22.25
  0
LINE
  8
0
  6
CONTINUOUS
 62
     7
 10
-74.63675
 20
38.7
 11
-89.43675
 21
38.7
  0
LINE
  8
0
  6
CONTINUOUS
 62
     7
 10
-74.63675
 20
39.7
 11
-89.43675
 21
39.7
  0
LINE
  8
0
  6
CENTER
 62
     2
 10
-82.03674
 20
49.10001
 11
-82.03674
 21
8.60001
  0
LINE
  8
0
  6
CONTINUOUS
 62
     7
 10
-77.03674
 20
24.0
 11
-87.03674
 21
24.0
  0
LINE
  8
0
  6
CONTINUOUS
 62
     7
 10
-77.03674
 20
14.0
 11
-87.03674
 21
14.0
  0
LINE
  8
0
  6
CONTINUOUS
 62
     7
 10
-77.03674
 20
24.0
 11
-77.03674
 21
14.0
  0
LINE
  8
0
  6
CONTINUOUS
 62
     7
 10
-87.03674
 20
24.0
 11
-87.03674
 21
14.0
  0
LINE
  8
0
  6
CONTINUOUS
 62
     7
 10
-78.03674
 20
24.0
 11
-78.03674
 21
14.0
  0
LINE
  8
0
  6
CONTINUOUS
 62
     7
 10
-79.03674
 20
24.0
 11
-79.03674
 21
14.0
  0
LINE
  8
0
  6
CONTINUOUS
 62
     7
 10
-80.03674
 20
24.0
 11
-80.03674
 21
14.0
  0
LINE
  8
0
  6
CONTINUOUS
 62
     7
 10
-81.03674
 20
24.0
 11
-81.03674
 21
14.0
  0
LINE
  8
0
  6
CONTINUOUS
 62
     7
 10
-82.03674
 20
24.0
 11
-82.03674
 21
14.0
  0
LINE
  8
0
  6
CONTINUOUS
 62
     7
 10
-83.03674
 20
24.0
 11
-83.03674
 21
14.0
  0
LINE
  8
0
  6
CONTINUOUS
 62
     7
 10
-84.03674
 20
24.0
 11
-84.03674
 21
14.0
  0
LINE
  8
0
  6
CONTINUOUS
 62
     7
 10
-85.03674
 20
24.0
 11
-85.03674
 21
14.0
  0
LINE
  8
0
  6
CONTINUOUS
 62
     7
 10
-86.03674
 20
24.0
 11
-86.03674
 21
14.0
  0
LINE
  8
0
  6
CONTINUOUS
 62
     7
 10
-87.83672
 20
46.10001
 11
-89.43673
 21
45.17625
  0
LINE
  8
0
  6
CONTINUOUS
 62
     7
 10
-76.23674
 20
46.1
 11
-74.63676
 21
45.17625
  0
LINE
  8
0
  6
CONTINUOUS
 62
     7
 10
-78.17607
 20
45.17624
 11
-78.17607
 21
39.7
  0
LINE
  8
0
  6
CONTINUOUS
 62
     7
 10
-78.4998
 20
45.17624
 11
-78.4998
 21
39.7
  0
LINE
  8
0
  6
CONTINUOUS
 62
     7
 10
-85.5737
 20
45.17624
 11
-85.5737
 21
39.7
  0
LINE
  8
0
  6
CONTINUOUS
 62
     7
 10
-85.89745
 20
45.17624
 11
-85.89745
 21
39.7
  0
LINE
  8
0
  6
CONTINUOUS
 62
     7
 10
-78.17607
 20
45.17624
 11
-78.4998
 21
45.17624
  0
LINE
  8
0
  6
CONTINUOUS
 62
     7
 10
-85.5737
 20
45.17624
 11
-85.89745
 21
45.17624
  0
LINE
  8
0
  6
CONTINUOUS
 62
     7
 10
-66.43675
 20
26.39999
 11
-88.93675
 21
26.39999
  0
LINE
  8
0
  6
CONTINUOUS
 62
     7
 10
-66.43675
 20
11.60001
 11
-88.93675
 21
11.60001
  0
LINE
  8
0
  6
CONTINUOUS
 62
     7
 10
-66.43675
 20
27.0
 11
-66.43675
 21
2.0
  0
LINE
  8
0
  6
CONTINUOUS
 62
     7
 10
-74.63675
 20
36.7
 11
-89.43675
 21
36.7
  0
LINE
  8
0
  6
CONTINUOUS
 62
     7
 10
-89.43675
 20
36.7
 11
-89.43675
 21
12.10001
  0
LINE
  8
0
  6
CONTINUOUS
 62
     7
 10
-74.63675
 20
36.7
 11
-74.63675
 21
26.39999
  0
LINE
  8
0
  6
CONTINUOUS
 62
     7
 10
-76.03674
 20
38.7
 11
-76.03674
 21
36.7
  0
LINE
  8
0
  6
CONTINUOUS
 62
     7
 10
-88.03674
 20
38.7
 11
-88.03674
 21
36.7
  0
LINE
  8
0
  6
CONTINUOUS
 62
     7
 10
-87.36024
 20
38.7
 11
-87.36024
 21
36.7
  0
LINE
  8
0
  6
CONTINUOUS
 62
     7
 10
-76.71324
 20
38.7
 11
-76.71324
 21
36.7
  0
LINE
  8
0
  6
CONTINUOUS
 62
     7
 10
-66.93672
 20
11.60001
 11
-66.93672
 21
26.40001
  0
LINE
  8
0
  6
CONTINUOUS
 62
     7
 10
-197.4368
 20
-163.1999
 11
-194.4368
 21
-163.1999
  0
LINE
  8
0
  6
CONTINUOUS
 62
     7
 10
-185.4368
 20
-174.8
 11
-182.4368
 21
-174.8
  0
LINE
  8
0
  6
CONTINUOUS
 62
     7
 10
-191.2368
 20
-159.9999
 11
-191.2368
 21
-156.9999
  0
LINE
  8
0
  6
CONTINUOUS
 62
     7
 10
-188.6367
 20
-177.9999
 11
-188.6367
 21
-180.9999
  0
LINE
  8
0
  6
CENTER
 62
     2
 10
-198.9368
 20
-168.9999
 11
-180.9368
 21
-168.9999
  0
LINE
  8
0
  6
CENTER
 62
     2
 10
-189.9368
 20
-122.8244
 11
-189.9368
 21
-182.9999
  0
LINE
  8
0
  6
CONTINUOUS
 62
     7
 10
-196.4368
 20
-166.9999
 11
-183.4368
 21
-166.9999
  0
LINE
  8
0
  6
CONTINUOUS
 62
     7
 10
-196.4368
 20
-170.9999
 11
-183.4368
 21
-170.9999
  0
LINE
  8
0
  6
CONTINUOUS
 62
     7
 10
-183.4368
 20
-166.9999
 11
-183.4368
 21
-170.9999
  0
LINE
  8
0
  6
CONTINUOUS
 62
     7
 10
-196.4368
 20
-166.9999
 11
-196.4368
 21
-170.9999
  0
LINE
  8
0
  6
CONTINUOUS
 62
     7
 10
-195.7247
 20
-169.9698
 11
-193.7365
 21
-169.9698
  0
LINE
  8
0
  6
CONTINUOUS
 62
     7
 10
-195.7247
 20
-170.4999
 11
-193.0296
 21
-170.4999
  0
LINE
  8
0
  6
CONTINUOUS
 62
     7
 10
-195.7247
 20
-168.4233
 11
-193.7365
 21
-168.4233
  0
LINE
  8
0
  6
CONTINUOUS
 62
     7
 10
-195.7247
 20
-167.8932
 11
-195.7247
 21
-168.4233
  0
LINE
  8
0
  6
CONTINUOUS
 62
     7
 10
-193.0296
 20
-168.2466
 11
-193.0296
 21
-170.4999
  0
LINE
  8
0
  6
CONTINUOUS
 62
     7
 10
-193.7365
 20
-168.4233
 11
-193.7365
 21
-169.9698
  0
LINE
  8
0
  6
CONTINUOUS
 62
     7
 10
-192.6319
 20
-167.8932
 11
-192.6319
 21
-168.4233
  0
LINE
  8
0
  6
CONTINUOUS
 62
     7
 10
-190.1135
 20
-168.4233
 11
-190.1135
 21
-170.1465
  0
LINE
  8
0
  6
CONTINUOUS
 62
     7
 10
-190.8204
 20
-168.4233
 11
-190.8204
 21
-169.9698
  0
LINE
  8
0
  6
CONTINUOUS
 62
     7
 10
-195.7247
 20
-169.9698
 11
-195.7247
 21
-170.4999
  0
LINE
  8
0
  6
CONTINUOUS
 62
     7
 10
-192.6319
 20
-167.8932
 11
-191.9334
 21
-167.8932
  0
LINE
  8
0
  6
CONTINUOUS
 62
     7
 10
-192.6319
 20
-170.4999
 11
-192.083
 21
-170.4999
  0
LINE
  8
0
  6
CONTINUOUS
 62
     7
 10
-192.6319
 20
-170.5
 11
-192.0755
 21
-168.4234
  0
LINE
  8
0
  6
CONTINUOUS
 62
     7
 10
-192.6319
 20
-168.4233
 11
-192.0755
 21
-168.4233
  0
LINE
  8
0
  6
CONTINUOUS
 62
     7
 10
-192.083
 20
-170.5
 11
-191.5266
 21
-168.4234
  0
LINE
  8
0
  6
CONTINUOUS
 62
     7
 10
-191.3506
 20
-169.9698
 11
-190.8204
 21
-169.9698
  0
LINE
  8
0
  6
CONTINUOUS
 62
     7
 10
-191.3506
 20
-169.9697
 11
-191.2085
 21
-170.4999
  0
LINE
  8
0
  6
CONTINUOUS
 62
     7
 10
-191.2086
 20
-170.4999
 11
-190.467
 21
-170.4999
  0
LINE
  8
0
  6
CONTINUOUS
 62
     7
 10
-191.5266
 20
-168.4233
 11
-190.8204
 21
-168.4233
  0
LINE
  8
0
  6
CONTINUOUS
 62
     7
 10
-191.3845
 20
-167.8932
 11
-190.6437
 21
-167.8932
  0
LINE
  8
0
  6
CONTINUOUS
 62
     7
 10
-191.9333
 20
-167.8932
 11
-191.828
 21
-167.5
  0
LINE
  8
0
  6
CONTINUOUS
 62
     7
 10
-191.3845
 20
-167.8932
 11
-191.2792
 21
-167.4999
  0
LINE
  8
0
  6
CONTINUOUS
 62
     7
 10
-189.6717
 20
-167.8932
 11
-188.8322
 21
-167.8932
  0
LINE
  8
0
  6
CONTINUOUS
 62
     7
 10
-189.6717
 20
-168.4233
 11
-187.61
 21
-168.4233
  0
LINE
  8
0
  6
CONTINUOUS
 62
     7
 10
-188.8322
 20
-170.4999
 11
-188.1253
 21
-170.4999
  0
LINE
  8
0
  6
CONTINUOUS
 62
     7
 10
-189.6717
 20
-167.8932
 11
-189.6717
 21
-168.4233
  0
LINE
  8
0
  6
CONTINUOUS
 62
     7
 10
-187.0649
 20
-169.3847
 11
-187.0649
 21
-169.9698
  0
LINE
  8
0
  6
CONTINUOUS
 62
     7
 10
-189.6716
 20
-169.9699
 11
-188.8322
 21
-169.5784
  0
LINE
  8
0
  6
CONTINUOUS
 62
     7
 10
-189.6716
 20
-169.3848
 11
-187.6099
 21
-168.4234
  0
LINE
  8
0
  6
CONTINUOUS
 62
     7
 10
-189.6717
 20
-169.3847
 11
-189.6717
 21
-169.9698
  0
LINE
  8
0
  6
CONTINUOUS
 62
     7
 10
-188.1253
 20
-169.4752
 11
-187.0649
 21
-169.9697
  0
LINE
  8
0
  6
CONTINUOUS
 62
     7
 10
-187.7409
 20
-169.0694
 11
-187.0648
 21
-169.3847
  0
LINE
  8
0
  6
CONTINUOUS
 62
     7
 10
-187.0649
 20
-168.2466
 11
-187.0649
 21
-168.529
  0
LINE
  8
0
  6
CONTINUOUS
 62
     7
 10
-188.8322
 20
-167.4999
 11
-188.8322
 21
-167.8932
  0
LINE
  8
0
  6
CONTINUOUS
 62
     7
 10
-188.1253
 20
-167.4999
 11
-188.1253
 21
-167.8932
  0
LINE
  8
0
  6
CONTINUOUS
 62
     7
 10
-188.1253
 20
-167.8932
 11
-187.4184
 21
-167.8932
  0
LINE
  8
0
  6
CONTINUOUS
 62
     7
 10
-188.8322
 20
-169.5783
 11
-188.8322
 21
-170.4999
  0
LINE
  8
0
  6
CONTINUOUS
 62
     7
 10
-188.1253
 20
-169.4753
 11
-188.1253
 21
-170.4999
  0
LINE
  8
0
  6
CONTINUOUS
 62
     7
 10
-187.741
 20
-169.0695
 11
-187.2689
 21
-168.8494
  0
LINE
  8
0
  6
CONTINUOUS
 62
     7
 10
-184.679
 20
-167.659
 11
-184.1488
 21
-167.659
  0
LINE
  8
0
  6
CONTINUOUS
 62
     7
 10
-186.844
 20
-168.7542
 11
-186.844
 21
-169.3248
  0
LINE
  8
0
  6
CONTINUOUS
 62
     7
 10
-184.1488
 20
-167.659
 11
-184.1488
 21
-167.8932
  0
LINE
  8
0
  6
CONTINUOUS
 62
     7
 10
-184.679
 20
-167.659
 11
-184.679
 21
-167.7733
  0
LINE
  8
0
  6
CONTINUOUS
 62
     7
 10
-185.386
 20
-168.7449
 11
-185.386
 21
-170.4999
  0
LINE
  8
0
  6
CONTINUOUS
 62
     7
 10
-186.8439
 20
-168.7542
 11
-184.7904
 21
-167.9375
  0
LINE
  8
0
  6
CONTINUOUS
 62
     7
 10
-186.8439
 20
-169.3247
 11
-185.3859
 21
-168.7448
  0
LINE
  8
0
  6
CONTINUOUS
 62
     7
 10
-185.386
 20
-170.4999
 11
-184.679
 21
-170.4999
  0
LINE
  8
0
  6
CONTINUOUS
 62
     7
 10
-184.679
 20
-168.4637
 11
-184.679
 21
-170.4999
  0
LINE
  8
0
  6
CONTINUOUS
 62
     7
 10
-184.679
 20
-168.4638
 11
-184.4831
 21
-168.3858
  0
LINE
  8
0
  6
CONTINUOUS
 62
     7
 10
-191.8281
 20
-167.4999
 11
-191.2792
 21
-167.4999
  0
LINE
  8
0
  6
CONTINUOUS
 62
     7
 10
-190.4007
 20
-167.4999
 11
-190.1747
 21
-167.4999
  0
LINE
  8
0
  6
CONTINUOUS
 62
     7
 10
-188.8322
 20
-167.4999
 11
-188.1253
 21
-167.4999
  0
LINE
  8
0
  6
CONTINUOUS
 62
     7
 10
-190.4007
 20
-167.8534
 11
-190.1747
 21
-167.8534
  0
LINE
  8
0
  6
CONTINUOUS
 62
     7
 10
-190.4007
 20
-167.4999
 11
-190.4007
 21
-167.8534
  0
LINE
  8
0
  6
CONTINUOUS
 62
     7
 10
-190.1747
 20
-167.4999
 11
-190.1747
 21
-167.8534
  0
LINE
  8
0
  6
CONTINUOUS
 62
     7
 10
-190.0169
 20
-167.4999
 11
-190.0169
 21
-167.8534
  0
LINE
  8
0
  6
CONTINUOUS
 62
     7
 10
-189.791
 20
-167.4999
 11
-189.791
 21
-167.8534
  0
LINE
  8
0
  6
CONTINUOUS
 62
     7
 10
-190.017
 20
-167.4999
 11
-189.791
 21
-167.4999
  0
LINE
  8
0
  6
CONTINUOUS
 62
     7
 10
-190.017
 20
-167.8534
 11
-189.791
 21
-167.8534
  0
LINE
  8
0
  6
CONTINUOUS
 62
     7
 10
-182.4368
 20
-180.4999
 11
-182.4368
 21
-149.9999
  0
LINE
  8
0
  6
CONTINUOUS
 62
     7
 10
-197.4368
 20
-180.4999
 11
-197.4368
 21
-149.9999
  0
LINE
  8
0
  6
CONTINUOUS
 62
     7
 10
-196.9368
 20
-180.9999
 11
-182.9368
 21
-180.9999
  0
LINE
  8
0
  6
CONTINUOUS
 62
     7
 10
-197.4368
 20
-156.9999
 11
-182.4368
 21
-156.9999
  0
LINE
  8
0
  6
CONTINUOUS
 62
     7
 10
-195.7247
 20
-167.8932
 11
-193.383
 21
-167.8932
  0
LINE
  8
0
  6
CONTINUOUS
 62
     7
 10
-190.1135
 20
-168.4233
 11
-190.1135
 21
-170.1465
  0
LINE
  8
0
  6
CONTINUOUS
 62
     7
 10
-191.2086
 20
-170.4999
 11
-190.467
 21
-170.4999
  0
LINE
  8
0
  6
CONTINUOUS
 62
     7
 10
-191.3845
 20
-167.8932
 11
-190.6437
 21
-167.8932
  0
LINE
  8
0
  6
CONTINUOUS
 62
     7
 10
-187.0649
 20
-168.2466
 11
-187.0649
 21
-168.529
  0
LINE
  8
0
  6
CONTINUOUS
 62
     7
 10
-184.679
 20
-167.659
 11
-184.1488
 21
-167.659
  0
LINE
  8
0
  6
CONTINUOUS
 62
     7
 10
-184.1488
 20
-167.659
 11
-184.1488
 21
-167.8932
  0
LINE
  8
0
  6
CONTINUOUS
 62
     7
 10
-184.679
 20
-167.659
 11
-184.679
 21
-167.7733
  0
LINE
  8
0
  6
CONTINUOUS
 62
     7
 10
-186.8439
 20
-168.7542
 11
-184.7904
 21
-167.9375
  0
LINE
  8
0
  6
CONTINUOUS
 62
     7
 10
-184.679
 20
-168.4637
 11
-184.679
 21
-170.4999
  0
LINE
  8
0
  6
CONTINUOUS
 62
     7
 10
-184.679
 20
-168.4636
 11
-184.4831
 21
-168.3857
  0
LINE
  8
0
  6
CENTER
 62
     2
 10
-194.4368
 20
-164.1789
 11
-194.4368
 21
-155.832
  0
LINE
  8
0
  6
CENTER
 62
     2
 10
-198.4691
 20
-159.9999
 11
-190.527
 21
-159.9999
  0
LINE
  8
0
  6
CONTINUOUS
 62
     7
 10
-195.2853
 20
-161.2727
 11
-195.7095
 21
-160.8485
  0
LINE
  8
0
  6
CONTINUOUS
 62
     7
 10
-193.164
 20
-159.1514
 11
-193.5882
 21
-158.7272
  0
LINE
  8
0
  6
CONTINUOUS
 62
     7
 10
-193.5882
 20
-161.2727
 11
-194.0125
 21
-160.8484
  0
LINE
  8
0
  6
CONTINUOUS
 62
     7
 10
-193.164
 20
-160.8484
 11
-193.5882
 21
-160.4242
  0
LINE
  8
0
  6
CONTINUOUS
 62
     7
 10
-193.5882
 20
-161.2727
 11
-193.1639
 21
-160.8485
  0
LINE
  8
0
  6
CONTINUOUS
 62
     7
 10
-195.7095
 20
-159.1515
 11
-195.2852
 21
-158.7272
  0
LINE
  8
0
  6
CONTINUOUS
 62
     7
 10
-195.2852
 20
-161.2728
 11
-194.861
 21
-160.8485
  0
LINE
  8
0
  6
CONTINUOUS
 62
     7
 10
-195.7095
 20
-160.8486
 11
-195.2852
 21
-160.4243
  0
LINE
  8
0
  6
CONTINUOUS
 62
     7
 10
-195.2853
 20
-159.5757
 11
-195.7096
 21
-159.1514
  0
LINE
  8
0
  6
CONTINUOUS
 62
     7
 10
-194.861
 20
-159.1514
 11
-195.2853
 21
-158.7271
  0
LINE
  8
0
  6
CONTINUOUS
 62
     7
 10
-193.5882
 20
-159.5757
 11
-193.1639
 21
-159.1514
  0
LINE
  8
0
  6
CONTINUOUS
 62
     7
 10
-194.0124
 20
-159.1515
 11
-193.5882
 21
-158.7272
  0
LINE
  8
0
  6
CENTER
 62
     2
 10
-185.4368
 20
-182.1789
 11
-185.4368
 21
-173.832
  0
LINE
  8
0
  6
CENTER
 62
     2
 10
-189.4691
 20
-177.9999
 11
-181.527
 21
-177.9999
  0
LINE
  8
0
  6
CONTINUOUS
 62
     7
 10
-186.2853
 20
-179.2728
 11
-186.7096
 21
-178.8485
  0
LINE
  8
0
  6
CONTINUOUS
 62
     7
 10
-184.164
 20
-177.1514
 11
-184.5883
 21
-176.7272
  0
LINE
  8
0
  6
CONTINUOUS
 62
     7
 10
-184.5882
 20
-179.2728
 11
-185.0125
 21
-178.8485
  0
LINE
  8
0
  6
CONTINUOUS
 62
     7
 10
-184.164
 20
-178.8485
 11
-184.5882
 21
-178.4242
  0
LINE
  8
0
  6
CONTINUOUS
 62
     7
 10
-184.5882
 20
-179.2727
 11
-184.1639
 21
-178.8485
  0
LINE
  8
0
  6
CONTINUOUS
 62
     7
 10
-186.7095
 20
-177.1514
 11
-186.2853
 21
-176.7272
  0
LINE
  8
0
  6
CONTINUOUS
 62
     7
 10
-186.2853
 20
-179.2728
 11
-185.861
 21
-178.8485
  0
LINE
  8
0
  6
CONTINUOUS
 62
     7
 10
-186.7095
 20
-178.8486
 11
-186.2852
 21
-178.4243
  0
LINE
  8
0
  6
CONTINUOUS
 62
     7
 10
-186.2853
 20
-177.5757
 11
-186.7096
 21
-177.1514
  0
LINE
  8
0
  6
CONTINUOUS
 62
     7
 10
-185.8611
 20
-177.1514
 11
-186.2853
 21
-176.7271
  0
LINE
  8
0
  6
CONTINUOUS
 62
     7
 10
-184.5882
 20
-177.5757
 11
-184.1639
 21
-177.1515
  0
LINE
  8
0
  6
CONTINUOUS
 62
     7
 10
-185.0124
 20
-177.1515
 11
-184.5882
 21
-176.7272
  0
LINE
  8
0
  6
CONTINUOUS
 62
     7
 10
-197.4368
 20
-153.9999
 11
-182.4368
 21
-153.9999
  0
LINE
  8
0
  6
CONTINUOUS
 62
     7
 10
-197.4368
 20
-149.9999
 11
-182.4368
 21
-149.9999
  0
LINE
  8
0
  6
CONTINUOUS
 62
     7
 10
-182.5368
 20
-149.9999
 11
-182.5368
 21
-127.4999
  0
LINE
  8
0
  6
CONTINUOUS
 62
     7
 10
-197.3368
 20
-149.9999
 11
-197.3368
 21
-127.4999
  0
LINE
  8
0
  6
CONTINUOUS
 62
     7
 10
-196.8368
 20
-126.9999
 11
-183.0368
 21
-126.9999
  0
LINE
  8
0
  6
CONTINUOUS
 62
     7
 10
-187.1368
 20
-125.8281
 11
-187.1368
 21
-126.4999
  0
LINE
  8
0
  6
CONTINUOUS
 62
     7
 10
-192.7368
 20
-125.8281
 11
-192.7368
 21
-126.4999
  0
LINE
  8
0
  6
CONTINUOUS
 62
     7
 10
-186.6868
 20
-126.4999
 11
-193.1868
 21
-126.4999
  0
LINE
  8
0
  6
CONTINUOUS
 62
     7
 10
-186.6868
 20
-126.4999
 11
-186.6868
 21
-126.9999
  0
LINE
  8
0
  6
CONTINUOUS
 62
     7
 10
-193.1868
 20
-126.4999
 11
-193.1868
 21
-126.9999
  0
LINE
  8
0
  6
CENTER
 62
     2
 10
-200.3368
 20
-134.3999
 11
-179.5368
 21
-134.3999
  0
LINE
  8
0
  6
CONTINUOUS
 62
     7
 10
-197.3368
 20
-149.4999
 11
-182.5368
 21
-149.4999
  0
LINE
  8
0
  6
CONTINUOUS
 62
     7
 10
170.4368
 20
28.2
 11
170.4368
 21
-50.0
  0
LINE
  8
0
  6
CONTINUOUS
 62
     7
 10
185.4368
 20
28.2
 11
185.4368
 21
-50.0
  0
LINE
  8
0
  6
CONTINUOUS
 62
     7
 10
170.4368
 20
2.0
 11
185.4368
 21
2.0
  0
LINE
  8
0
  6
CONTINUOUS
 62
     7
 10
170.4368
 20
-15.0
 11
185.4368
 21
-15.0
  0
LINE
  8
0
  6
CENTER
 62
     2
 10
177.9368
 20
48.33333
 11
177.9368
 21
-52.49852
  0
LINE
  8
0
  6
CENTER
 62
     2
 10
175.5518
 20
-1.5
 11
180.3984
 21
-1.5
  0
LINE
  8
0
  6
CONTINUOUS
 62
     7
 10
170.4368
 20
-43.0
 11
185.4368
 21
-43.0
  0
LINE
  8
0
  6
CONTINUOUS
 62
     7
 10
170.9368
 20
-50.5
 11
184.9368
 21
-50.5
  0
LINE
  8
0
  6
CONTINUOUS
 62
     7
 10
170.9368
 20
-45.5
 11
176.1368
 21
-45.5
  0
LINE
  8
0
  6
CENTER
 62
     2
 10
173.4368
 20
-44.14999
 11
173.4368
 21
-52.49852
  0
LINE
  8
0
  6
CONTINUOUS
 62
     7
 10
176.6368
 20
-46.0
 11
176.6368
 21
-50.0
  0
LINE
  8
0
  6
CENTER
 62
     2
 10
169.866
 20
-20.0
 11
175.9748
 21
-20.0
  0
LINE
  8
0
  6
CENTER
 62
     2
 10
180.1682
 20
-38.0
 11
186.0182
 21
-38.0
  0
LINE
  8
0
  6
CENTER
 62
     2
 10
183.4368
 20
-34.47301
 11
183.4368
 21
-41.41017
  0
LINE
  8
0
  6
CENTER
 62
     2
 10
172.4368
 20
-16.56062
 11
172.4368
 21
-23.34248
  0
LINE
  8
0
  6
CONTINUOUS
 62
     7
 10
170.6368
 20
-46.67183
 11
170.6368
 21
-45.5
  0
LINE
  8
0
  6
CONTINUOUS
 62
     7
 10
176.2368
 20
-46.67183
 11
176.2368
 21
-45.5
  0
LINE
  8
0
  6
CONTINUOUS
 62
     7
 10
170.4368
 20
27.2
 11
170.5368
 21
27.2
  0
LINE
  8
0
  6
CONTINUOUS
 62
     7
 10
170.4368
 20
28.2
 11
170.5368
 21
28.2
  0
LINE
  8
0
  6
CONTINUOUS
 62
     7
 10
185.4367
 20
28.19996
 11
185.3367
 21
28.39998
  0
LINE
  8
0
  6
CONTINUOUS
 62
     7
 10
170.4368
 20
28.2
 11
170.5368
 21
28.4
  0
LINE
  8
0
  6
CONTINUOUS
 62
     7
 10
171.0368
 20
26.40001
 11
184.8368
 21
26.40001
  0
LINE
  8
0
  6
CONTINUOUS
 62
     7
 10
171.0368
 20
11.60001
 11
184.8368
 21
11.60001
  0
LINE
  8
0
  6
CENTER
 62
     2
 10
167.4368
 20
19.0
 11
188.4368
 21
19.0
  0
LINE
  8
0
  6
CONTINUOUS
 62
     7
 10
176.6641
 20
18.15143
 11
177.0883
 21
18.57568
  0
LINE
  8
0
  6
CONTINUOUS
 62
     7
 10
177.0883
 20
17.72715
 11
177.5126
 21
18.1514
  0
LINE
  8
0
  6
CONTINUOUS
 62
     7
 10
176.6641
 20
18.15154
 11
177.0883
 21
17.72729
  0
LINE
  8
0
  6
CONTINUOUS
 62
     7
 10
178.7854
 20
20.27286
 11
179.2096
 21
19.84862
  0
LINE
  8
0
  6
CONTINUOUS
 62
     7
 10
175.7562
 20
20.75648
 11
177.0884
 21
19.42436
  0
LINE
  8
0
  6
CONTINUOUS
 62
     7
 10
176.1805
 20
21.18073
 11
177.5126
 21
19.8486
  0
LINE
  8
0
  6
CONTINUOUS
 62
     7
 10
178.3611
 20
19.84849
 11
178.7854
 21
20.27275
  0
LINE
  8
0
  6
CONTINUOUS
 62
     7
 10
178.7854
 20
19.42418
 11
179.2097
 21
19.84847
  0
LINE
  8
0
  6
CONTINUOUS
 62
     7
 10
178.3611
 20
18.15157
 11
179.6932
 21
16.81949
  0
LINE
  8
0
  6
CONTINUOUS
 62
     7
 10
178.7854
 20
18.57582
 11
180.1175
 21
17.24374
  0
LINE
  8
0
  6
CONTINUOUS
 62
     7
 10
170.5368
 20
38.7
 11
185.3368
 21
38.7
  0
LINE
  8
0
  6
CONTINUOUS
 62
     7
 10
172.1368
 20
46.10001
 11
183.7368
 21
46.10001
  0
LINE
  8
0
  6
CONTINUOUS
 62
     7
 10
170.5368
 20
39.7
 11
185.3368
 21
39.7
  0
LINE
  8
0
  6
CONTINUOUS
 62
     7
 10
185.3368
 20
39.7
 11
185.3368
 21
38.7
  0
LINE
  8
0
  6
CONTINUOUS
 62
     7
 10
170.5368
 20
39.7
 11
170.5368
 21
38.7
  0
LINE
  8
0
  6
CONTINUOUS
 62
     7
 10
171.4368
 20
45.69586
 11
171.4368
 21
39.7
  0
LINE
  8
0
  6
CONTINUOUS
 62
     7
 10
184.4368
 20
45.69586
 11
184.4368
 21
39.7
  0
LINE
  8
0
  6
CONTINUOUS
 62
     7
 10
183.7368
 20
46.10003
 11
184.4368
 21
45.69589
  0
LINE
  8
0
  6
CONTINUOUS
 62
     7
 10
172.1368
 20
46.09994
 11
171.4368
 21
45.6958
  0
LINE
  8
0
  6
CONTINUOUS
 62
     7
 10
177.7498
 20
45.17624
 11
178.1237
 21
45.17624
  0
LINE
  8
0
  6
CONTINUOUS
 62
     7
 10
185.3368
 20
28.2
 11
185.4368
 21
28.2
  0
LINE
  8
0
  6
CONTINUOUS
 62
     7
 10
185.3368
 20
27.2
 11
185.4368
 21
27.2
  0
LINE
  8
0
  6
CONTINUOUS
 62
     7
 10
178.1237
 20
45.17624
 11
178.1237
 21
39.7
  0
LINE
  8
0
  6
CONTINUOUS
 62
     7
 10
177.7498
 20
45.17624
 11
177.7498
 21
39.7
  0
LINE
  8
0
  6
CONTINUOUS
 62
     7
 10
170.5368
 20
36.7
 11
185.3368
 21
36.7
  0
LINE
  8
0
  6
CONTINUOUS
 62
     7
 10
170.5368
 20
36.7
 11
170.5368
 21
12.10001
  0
LINE
  8
0
  6
CONTINUOUS
 62
     7
 10
185.3368
 20
36.7
 11
185.3368
 21
12.10001
  0
LINE
  8
0
  6
CONTINUOUS
 62
     7
 10
183.9368
 20
38.7
 11
183.9368
 21
36.7
  0
LINE
  8
0
  6
CONTINUOUS
 62
     7
 10
171.9368
 20
38.7
 11
171.9368
 21
36.7
  0
LINE
  8
0
  6
CONTINUOUS
 62
     7
 10
183.2603
 20
38.7
 11
183.2603
 21
36.7
  0
LINE
  8
0
  6
CONTINUOUS
 62
     7
 10
172.6133
 20
38.7
 11
172.6133
 21
36.7
  0
LINE
  8
0
  6
CENTER
 62
     2
 10
167.9884
 20
133.0
 11
187.9246
 21
133.0
  0
LINE
  8
0
  6
CONTINUOUS
 62
     7
 10
185.4368
 20
121.0
 11
170.4368
 21
121.0
  0
LINE
  8
0
  6
CONTINUOUS
 62
     7
 10
176.4368
 20
124.0
 11
176.4368
 21
121.0
  0
LINE
  8
0
  6
CONTINUOUS
 62
     7
 10
179.4368
 20
142.0
 11
179.4368
 21
145.0
  0
LINE
  8
0
  6
CONTINUOUS
 62
     7
 10
182.4368
 20
139.0
 11
185.4368
 21
139.0
  0
LINE
  8
0
  6
CONTINUOUS
 62
     7
 10
173.4368
 20
127.0
 11
170.4368
 21
127.0
  0
LINE
  8
0
  6
CONTINUOUS
 62
     7
 10
179.4368
 20
144.0
 11
171.4368
 21
144.0
  0
LINE
  8
0
  6
CONTINUOUS
 62
     7
 10
184.4368
 20
122.0
 11
176.4368
 21
122.0
  0
LINE
  8
0
  6
CONTINUOUS
 62
     7
 10
184.4368
 20
139.0
 11
184.4368
 21
122.0
  0
LINE
  8
0
  6
CONTINUOUS
 62
     7
 10
171.4368
 20
144.0
 11
171.4368
 21
127.0
  0
LINE
  8
0
  6
CONTINUOUS
 62
     7
 10
171.2068
 20
123.7
 11
170.9045
 21
123.7
  0
LINE
  8
0
  6
CONTINUOUS
 62
     7
 10
171.2068
 20
124.3
 11
170.9045
 21
124.3
  0
LINE
  8
0
  6
CONTINUOUS
 62
     7
 10
170.9287
 20
124.4608
 11
171.2344
 21
124.4608
  0
LINE
  8
0
  6
CONTINUOUS
 62
     7
 10
184.6667
 20
142.3
 11
184.9691
 21
142.3
  0
LINE
  8
0
  6
CONTINUOUS
 62
     7
 10
184.6667
 20
141.7
 11
184.9691
 21
141.7
  0
LINE
  8
0
  6
CONTINUOUS
 62
     7
 10
184.9448
 20
141.5392
 11
184.6391
 21
141.5392
  0
LINE
  8
0
  6
CONTINUOUS
 62
     7
 10
172.7014
 20
125.1031
 11
173.0691
 21
124.7354
  0
LINE
  8
0
  6
CONTINUOUS
 62
     7
 10
172.3337
 20
124.7354
 11
172.7014
 21
124.3677
  0
LINE
  8
0
  6
CONTINUOUS
 62
     7
 10
172.7015
 20
125.103
 11
172.3338
 21
124.7353
  0
LINE
  8
0
  6
CONTINUOUS
 62
     7
 10
174.5399
 20
123.2646
 11
174.1722
 21
122.8969
  0
LINE
  8
0
  6
CONTINUOUS
 62
     7
 10
174.8333
 20
125.7641
 11
173.8046
 21
124.7353
  0
LINE
  8
0
  6
CONTINUOUS
 62
     7
 10
175.201
 20
125.3964
 11
174.1723
 21
124.3676
  0
LINE
  8
0
  6
CONTINUOUS
 62
     7
 10
174.1722
 20
123.6323
 11
174.5399
 21
123.2646
  0
LINE
  8
0
  6
CONTINUOUS
 62
     7
 10
173.8045
 20
123.2646
 11
174.1722
 21
122.8969
  0
LINE
  8
0
  6
CONTINUOUS
 62
     7
 10
172.7015
 20
123.6322
 11
171.6727
 21
122.6034
  0
LINE
  8
0
  6
CONTINUOUS
 62
     7
 10
173.0691
 20
123.2645
 11
172.0404
 21
122.2357
  0
LINE
  8
0
  6
CONTINUOUS
 62
     7
 10
181.7015
 20
143.1031
 11
182.0692
 21
142.7354
  0
LINE
  8
0
  6
CONTINUOUS
 62
     7
 10
181.3337
 20
142.7354
 11
181.7014
 21
142.3677
  0
LINE
  8
0
  6
CONTINUOUS
 62
     7
 10
181.7015
 20
143.1031
 11
181.3338
 21
142.7354
  0
LINE
  8
0
  6
CONTINUOUS
 62
     7
 10
183.5399
 20
141.2646
 11
183.1722
 21
140.8969
  0
LINE
  8
0
  6
CONTINUOUS
 62
     7
 10
183.8333
 20
143.7641
 11
182.8046
 21
142.7353
  0
LINE
  8
0
  6
CONTINUOUS
 62
     7
 10
184.201
 20
143.3964
 11
183.1722
 21
142.3676
  0
LINE
  8
0
  6
CONTINUOUS
 62
     7
 10
183.1723
 20
141.6323
 11
183.5399
 21
141.2646
  0
LINE
  8
0
  6
CONTINUOUS
 62
     7
 10
182.8045
 20
141.2646
 11
183.1722
 21
140.897
  0
LINE
  8
0
  6
CONTINUOUS
 62
     7
 10
181.7015
 20
141.6322
 11
180.6727
 21
140.6034
  0
LINE
  8
0
  6
CONTINUOUS
 62
     7
 10
182.0692
 20
141.2645
 11
181.0403
 21
140.2357
  0
LINE
  8
0
  6
CENTER
 62
     2
 10
177.4368
 20
124.0
 11
169.4368
 21
124.0
  0
LINE
  8
0
  6
CENTER
 62
     2
 10
186.4368
 20
142.0
 11
178.4368
 21
142.0
  0
LINE
  8
0
  6
CENTER
 62
     2
 10
182.4368
 20
146.0
 11
182.4368
 21
138.0
  0
LINE
  8
0
  6
CENTER
 62
     2
 10
173.4368
 20
128.0
 11
173.4368
 21
120.0
  0
LINE
  8
0
  6
CONTINUOUS
 62
     7
 10
185.4368
 20
144.5
 11
185.4368
 21
114.0
  0
LINE
  8
0
  6
CONTINUOUS
 62
     7
 10
184.9368
 20
145.0
 11
170.9368
 21
145.0
  0
LINE
  8
0
  6
CONTINUOUS
 62
     7
 10
170.4368
 20
144.5
 11
170.4368
 21
114.0
  0
LINE
  8
0
  6
CONTINUOUS
 62
     7
 10
185.4368
 20
118.0
 11
170.4368
 21
118.0
  0
LINE
  8
0
  6
CONTINUOUS
 62
     7
 10
185.4368
 20
114.0
 11
170.4368
 21
114.0
  0
LINE
  8
0
  6
CENTER
 62
     2
 10
188.3368
 20
98.39999
 11
167.5367
 21
98.39999
  0
LINE
  8
0
  6
CONTINUOUS
 62
     7
 10
184.4368
 20
101.9369
 11
184.4368
 21
94.86304
  0
LINE
  8
0
  6
CONTINUOUS
 62
     7
 10
171.4368
 20
101.9369
 11
171.4368
 21
94.86304
  0
LINE
  8
0
  6
CONTINUOUS
 62
     7
 10
184.2499
 20
94.53927
 11
178.1237
 21
91.00231
  0
LINE
  8
0
  6
CONTINUOUS
 62
     7
 10
177.7499
 20
105.7976
 11
171.6237
 21
102.2606
  0
LINE
  8
0
  6
CONTINUOUS
 62
     7
 10
177.7499
 20
91.00237
 11
171.6237
 21
94.53932
  0
LINE
  8
0
  6
CONTINUOUS
 62
     7
 10
184.2499
 20
102.2607
 11
178.1237
 21
105.7977
  0
LINE
  8
0
  6
CONTINUOUS
 62
     7
 10
184.8368
 20
90.99998
 11
171.0367
 21
90.99998
  0
LINE
  8
0
  6
CONTINUOUS
 62
     7
 10
175.1368
 20
89.82816
 11
175.1368
 21
90.49998
  0
LINE
  8
0
  6
CONTINUOUS
 62
     7
 10
180.7368
 20
89.82817
 11
180.7368
 21
90.49998
  0
LINE
  8
0
  6
CONTINUOUS
 62
     7
 10
181.1868
 20
90.49998
 11
181.1868
 21
90.99998
  0
LINE
  8
0
  6
CONTINUOUS
 62
     7
 10
174.6868
 20
90.49998
 11
181.1868
 21
90.49998
  0
LINE
  8
0
  6
CONTINUOUS
 62
     7
 10
174.6868
 20
90.49998
 11
174.6868
 21
90.99998
  0
LINE
  8
0
  6
CONTINUOUS
 62
     7
 10
170.5367
 20
114.0
 11
170.5367
 21
91.49998
  0
LINE
  8
0
  6
CONTINUOUS
 62
     7
 10
185.3368
 20
114.0
 11
185.3368
 21
91.49998
  0
LINE
  8
0
  6
CONTINUOUS
 62
     7
 10
185.3368
 20
113.5
 11
170.5367
 21
113.5
  0
LINE
  8
0
  6
CENTER
 62
     2
 10
177.9368
 20
146.7183
 11
177.9368
 21
86.04868
  0
LINE
  8
0
  6
CONTINUOUS
 62
     7
 10
22.4368
 20
1.99995
 11
53.4368
 21
1.99995
  0
LINE
  8
0
  6
CONTINUOUS
 62
     7
 10
22.4368
 20
28.19997
 11
22.4368
 21
-50.00005
  0
LINE
  8
0
  6
CONTINUOUS
 62
     7
 10
22.4368
 20
-15.00005
 11
46.4368
 21
-15.00005
  0
LINE
  8
0
  6
CENTER
 62
     2
 10
34.4368
 20
33.19997
 11
34.4368
 21
-52.80003
  0
LINE
  8
0
  6
CONTINUOUS
 62
     7
 10
46.4368
 20
1.99995
 11
46.4368
 21
-50.00005
  0
LINE
  8
0
  6
CONTINUOUS
 62
     7
 10
22.4368
 20
-43.00005
 11
46.4368
 21
-43.00005
  0
LINE
  8
0
  6
CONTINUOUS
 62
     7
 10
22.9368
 20
-50.50005
 11
45.9368
 21
-50.50005
  0
LINE
  8
0
  6
CONTINUOUS
 62
     7
 10
40.73682
 20
-45.50005
 11
45.9368
 21
-45.50005
  0
LINE
  8
0
  6
CENTER
 62
     2
 10
43.4368
 20
-43.70004
 11
43.4368
 21
-53.15004
  0
LINE
  8
0
  6
CONTINUOUS
 62
     7
 10
40.23682
 20
-46.00005
 11
40.23682
 21
-50.00005
  0
LINE
  8
0
  6
CONTINUOUS
 62
     7
 10
40.63678
 20
-46.67186
 11
40.63678
 21
-45.50005
  0
LINE
  8
0
  6
CONTINUOUS
 62
     7
 10
46.23679
 20
-46.67186
 11
46.23679
 21
-45.50005
  0
LINE
  8
0
  6
CENTER
 62
     2
 10
42.03232
 20
-20.00005
 11
47.26236
 21
-20.00005
  0
LINE
  8
0
  6
CONTINUOUS
 62
     7
 10
43.4368
 20
-18.1862
 11
43.4368
 21
-21.81389
  0
LINE
  8
0
  6
CONTINUOUS
 62
     7
 10
43.4368
 20
-18.1862
 11
46.4368
 21
-18.1862
  0
LINE
  8
0
  6
CONTINUOUS
 62
     7
 10
43.4368
 20
-21.81389
 11
46.4368
 21
-21.81389
  0
LINE
  8
0
  6
CONTINUOUS
 62
     7
 10
22.4368
 20
27.19997
 11
49.4368
 21
27.19997
  0
LINE
  8
0
  6
CONTINUOUS
 62
     7
 10
46.4368
 20
28.19994
 11
46.4368
 21
27.19997
  0
LINE
  8
0
  6
CONTINUOUS
 62
     7
 10
23.4368
 20
30.19997
 11
41.61102
 21
30.19997
  0
LINE
  8
0
  6
CONTINUOUS
 62
     7
 10
22.4368
 20
28.19997
 11
46.4368
 21
28.19997
  0
LINE
  8
0
  6
CONTINUOUS
 62
     7
 10
22.43677
 20
28.19996
 11
23.43677
 21
30.19996
  0
LINE
  8
0
  6
CONTINUOUS
 62
     7
 10
46.43676
 20
28.19993
 11
45.43675
 21
30.19995
  0
LINE
  8
0
  6
CONTINUOUS
 62
     7
 10
40.4368
 20
30.19997
 11
40.4368
 21
28.19997
  0
LINE
  8
0
  6
CENTER
 62
     2
 10
43.4368
 20
33.19997
 11
43.4368
 21
24.19997
  0
LINE
  8
0
  6
CONTINUOUS
 62
     7
 10
45.98679
 20
28.79996
 11
40.88681
 21
28.79996
  0
LINE
  8
0
  6
CONTINUOUS
 62
     7
 10
43.13676
 20
28.19997
 11
42.976
 21
28.79996
  0
LINE
  8
0
  6
CONTINUOUS
 62
     7
 10
43.73696
 20
28.79998
 11
43.89773
 21
28.19999
  0
LINE
  8
0
  6
CONTINUOUS
 62
     7
 10
45.98679
 20
28.79996
 11
45.98679
 21
28.19997
  0
LINE
  8
0
  6
CONTINUOUS
 62
     7
 10
40.88681
 20
28.79996
 11
40.88681
 21
28.19997
  0
LINE
  8
0
  6
CONTINUOUS
 62
     7
 10
45.68683
 20
29.4937
 11
45.68683
 21
28.79996
  0
LINE
  8
0
  6
CONTINUOUS
 62
     7
 10
41.18683
 20
29.4937
 11
41.18683
 21
28.79996
  0
LINE
  8
0
  6
CONTINUOUS
 62
     7
 10
45.26257
 20
30.19997
 11
45.4368
 21
30.19997
  0
LINE
  8
0
  6
CENTER
 62
     2
 10
25.4368
 20
33.19997
 11
25.4368
 21
24.19997
  0
LINE
  8
0
  6
CONTINUOUS
 62
     7
 10
49.4368
 20
27.19997
 11
49.4368
 21
1.99995
  0
LINE
  8
0
  6
CONTINUOUS
 62
     7
 10
49.4368
 20
26.99995
 11
53.4368
 21
26.99995
  0
LINE
  8
0
  6
CENTER
 62
     2
 10
46.4368
 20
18.99995
 11
81.83679
 21
18.99995
  0
LINE
  8
0
  6
CONTINUOUS
 62
     7
 10
76.4368
 20
45.17618
 11
76.4368
 21
38.69995
  0
LINE
  8
0
  6
CONTINUOUS
 62
     7
 10
53.4368
 20
11.59996
 11
75.9368
 21
11.59996
  0
LINE
  8
0
  6
CONTINUOUS
 62
     7
 10
53.4368
 20
26.39995
 11
75.9368
 21
26.39995
  0
LINE
  8
0
  6
CONTINUOUS
 62
     7
 10
61.63681
 20
45.17619
 11
61.63681
 21
38.69995
  0
LINE
  8
0
  6
CONTINUOUS
 62
     7
 10
63.23679
 20
46.09996
 11
74.83679
 21
46.09996
  0
LINE
  8
0
  6
CONTINUOUS
 62
     7
 10
77.60861
 20
16.19997
 11
76.9368
 21
16.19997
  0
LINE
  8
0
  6
CONTINUOUS
 62
     7
 10
77.60861
 20
21.79997
 11
76.9368
 21
21.79997
  0
LINE
  8
0
  6
CONTINUOUS
 62
     7
 10
76.93677
 20
15.74995
 11
76.93677
 21
22.24995
  0
LINE
  8
0
  6
CONTINUOUS
 62
     7
 10
76.9368
 20
15.74997
 11
76.4368
 21
15.74997
  0
LINE
  8
0
  6
CONTINUOUS
 62
     7
 10
76.9368
 20
22.24997
 11
76.4368
 21
22.24997
  0
LINE
  8
0
  6
CONTINUOUS
 62
     7
 10
61.63681
 20
38.69995
 11
76.4368
 21
38.69995
  0
LINE
  8
0
  6
CONTINUOUS
 62
     7
 10
61.63681
 20
39.69995
 11
76.4368
 21
39.69995
  0
LINE
  8
0
  6
CONTINUOUS
 62
     7
 10
64.0368
 20
23.99995
 11
74.0368
 21
23.99995
  0
LINE
  8
0
  6
CONTINUOUS
 62
     7
 10
64.0368
 20
13.99995
 11
74.0368
 21
13.99995
  0
LINE
  8
0
  6
CONTINUOUS
 62
     7
 10
64.0368
 20
23.99995
 11
64.0368
 21
13.99995
  0
LINE
  8
0
  6
CONTINUOUS
 62
     7
 10
74.0368
 20
23.99995
 11
74.0368
 21
13.99995
  0
LINE
  8
0
  6
CONTINUOUS
 62
     7
 10
65.0368
 20
23.99995
 11
65.0368
 21
13.99995
  0
LINE
  8
0
  6
CONTINUOUS
 62
     7
 10
66.0368
 20
23.99995
 11
66.0368
 21
13.99995
  0
LINE
  8
0
  6
CONTINUOUS
 62
     7
 10
67.0368
 20
23.99995
 11
67.0368
 21
13.99995
  0
LINE
  8
0
  6
CONTINUOUS
 62
     7
 10
68.0368
 20
23.99995
 11
68.0368
 21
13.99995
  0
LINE
  8
0
  6
CONTINUOUS
 62
     7
 10
69.0368
 20
23.99995
 11
69.0368
 21
13.99995
  0
LINE
  8
0
  6
CONTINUOUS
 62
     7
 10
70.0368
 20
23.99995
 11
70.0368
 21
13.99995
  0
LINE
  8
0
  6
CONTINUOUS
 62
     7
 10
71.0368
 20
23.99995
 11
71.0368
 21
13.99995
  0
LINE
  8
0
  6
CONTINUOUS
 62
     7
 10
72.0368
 20
23.99995
 11
72.0368
 21
13.99995
  0
LINE
  8
0
  6
CONTINUOUS
 62
     7
 10
73.0368
 20
23.99995
 11
73.0368
 21
13.99995
  0
LINE
  8
0
  6
CONTINUOUS
 62
     7
 10
74.83672
 20
46.09992
 11
76.43674
 21
45.17615
  0
LINE
  8
0
  6
CONTINUOUS
 62
     7
 10
63.2368
 20
46.09996
 11
61.6368
 21
45.1762
  0
LINE
  8
0
  6
CONTINUOUS
 62
     7
 10
65.17612
 20
45.17619
 11
65.17612
 21
39.69995
  0
LINE
  8
0
  6
CONTINUOUS
 62
     7
 10
65.49985
 20
45.17619
 11
65.49985
 21
39.69995
  0
LINE
  8
0
  6
CONTINUOUS
 62
     7
 10
72.57373
 20
45.17619
 11
72.57373
 21
39.69995
  0
LINE
  8
0
  6
CONTINUOUS
 62
     7
 10
72.89749
 20
45.17619
 11
72.89749
 21
39.69995
  0
LINE
  8
0
  6
CONTINUOUS
 62
     7
 10
65.17612
 20
45.17619
 11
65.49985
 21
45.17619
  0
LINE
  8
0
  6
CONTINUOUS
 62
     7
 10
72.57373
 20
45.17619
 11
72.89749
 21
45.17619
  0
LINE
  8
0
  6
CENTER
 62
     2
 10
69.0368
 20
49.09996
 11
69.0368
 21
8.59996
  0
LINE
  8
0
  6
CONTINUOUS
 62
     7
 10
53.4368
 20
26.99995
 11
53.4368
 21
1.99995
  0
LINE
  8
0
  6
CONTINUOUS
 62
     7
 10
61.63681
 20
36.69995
 11
76.4368
 21
36.69995
  0
LINE
  8
0
  6
CONTINUOUS
 62
     7
 10
61.63681
 20
36.69995
 11
61.63681
 21
26.39995
  0
LINE
  8
0
  6
CONTINUOUS
 62
     7
 10
76.4368
 20
36.69995
 11
76.4368
 21
12.09996
  0
LINE
  8
0
  6
CONTINUOUS
 62
     7
 10
75.0368
 20
38.69995
 11
75.0368
 21
36.69995
  0
LINE
  8
0
  6
CONTINUOUS
 62
     7
 10
63.0368
 20
38.69995
 11
63.0368
 21
36.69995
  0
LINE
  8
0
  6
CONTINUOUS
 62
     7
 10
74.36029
 20
38.69995
 11
74.36029
 21
36.69995
  0
LINE
  8
0
  6
CONTINUOUS
 62
     7
 10
63.71329
 20
38.69995
 11
63.71329
 21
36.69995
  0
LINE
  8
0
  6
CONTINUOUS
 62
     7
 10
53.93683
 20
11.59996
 11
53.93683
 21
26.39996
  0
ARC
  8
0
  6
CONTINUOUS
 62
     7
 10
273.0354
 20
-235.0457
 40
2.21188
 50
0.0
 51
89.99999
  0
ARC
  8
0
  6
CONTINUOUS
 62
     7
 10
291.2836
 20
-246.9346
 40
2.2119
 50
270.0
 51
0.0
  0
ARC
  8
0
  6
CONTINUOUS
 62
     7
 10
290.1776
 20
-236.1516
 40
3.31784
 50
0.0
 51
89.99999
  0
ARC
  8
0
  6
CONTINUOUS
 62
     7
 10
310.3611
 20
-236.8128
 40
2.21189
 50
295.0
 51
0.0
  0
ARC
  8
0
  6
CONTINUOUS
 62
     7
 10
310.3611
 20
-235.0457
 40
2.21188
 50
0.0
 51
89.99999
  0
ARC
  8
0
  6
CONTINUOUS
 62
     7
 10
327.5034
 20
-232.8338
 40
3.31784
 50
291.6884
 51
0.0
  0
ARC
  8
0
  6
CONTINUOUS
 62
     7
 10
326.3973
 20
-232.0834
 40
1.10595
 50
291.689
 51
0.0
  0
ARC
  8
0
  6
CONTINUOUS
 62
     7
 10
173.4368
 20
-160.0
 40
3.2
 50
270.0
 51
0.0
  0
ARC
  8
0
  6
CONTINUOUS
 62
     7
 10
182.4368
 20
-178.0
 40
3.2
 50
89.99999
 51
180.0
  0
ARC
  8
0
  6
CONTINUOUS
 62
     7
 10
174.4905
 20
-168.2466
 40
0.35345
 50
0.0
 51
89.99999
  0
ARC
  8
0
  6
CONTINUOUS
 62
     7
 10
177.4066
 20
-170.1465
 40
0.35345
 50
270.0
 51
0.0
  0
ARC
  8
0
  6
CONTINUOUS
 62
     7
 10
177.2299
 20
-168.4234
 40
0.5302
 50
0.0
 51
89.99999
  0
ARC
  8
0
  6
CONTINUOUS
 62
     7
 10
180.4552
 20
-168.2466
 40
0.35345
 50
0.0
 51
89.99999
  0
ARC
  8
0
  6
CONTINUOUS
 62
     7
 10
180.4552
 20
-168.529
 40
0.35346
 50
295.0008
 51
0.0
  0
ARC
  8
0
  6
CONTINUOUS
 62
     7
 10
183.1945
 20
-167.8932
 40
0.53019
 50
291.6884
 51
0.0
  0
ARC
  8
0
  6
CONTINUOUS
 62
     7
 10
183.0178
 20
-167.7733
 40
0.17672
 50
291.6875
 51
0.0
  0
ARC
  8
0
  6
CONTINUOUS
 62
     7
 10
170.9368
 20
-180.5
 40
0.5
 50
180.0
 51
270.0
  0
ARC
  8
0
  6
CONTINUOUS
 62
     7
 10
184.9368
 20
-180.5
 40
0.5
 50
270.0
 51
0.0
  0
CIRCLE
  8
0
  6
CONTINUOUS
 62
     7
 10
173.4368
 20
-160.0
 40
2.8
  0
ARC
  8
0
  6
CONTINUOUS
 62
     7
 10
172.164
 20
-160.0
 40
0.60001
 50
315.0
 51
45.0
  0
ARC
  8
0
  6
CONTINUOUS
 62
     7
 10
173.4368
 20
-161.2728
 40
0.60001
 50
45.0
 51
135.0
  0
ARC
  8
0
  6
CONTINUOUS
 62
     7
 10
173.4368
 20
-158.7272
 40
0.60001
 50
225.0
 51
315.0
  0
ARC
  8
0
  6
CONTINUOUS
 62
     7
 10
174.7096
 20
-160.0
 40
0.60001
 50
135.0
 51
225.0
  0
CIRCLE
  8
0
  6
CONTINUOUS
 62
     7
 10
182.4368
 20
-178.0
 40
2.8
  0
ARC
  8
0
  6
CONTINUOUS
 62
     7
 10
181.164
 20
-178.0
 40
0.60001
 50
315.0
 51
45.0
  0
ARC
  8
0
  6
CONTINUOUS
 62
     7
 10
182.4368
 20
-179.2728
 40
0.60001
 50
45.0
 51
135.0
  0
ARC
  8
0
  6
CONTINUOUS
 62
     7
 10
182.4368
 20
-176.7272
 40
0.60001
 50
225.0
 51
315.0
  0
ARC
  8
0
  6
CONTINUOUS
 62
     7
 10
183.7096
 20
-178.0
 40
0.60001
 50
135.0
 51
225.0
  0
ARC
  8
0
  6
CONTINUOUS
 62
     7
 10
171.0368
 20
-127.5
 40
0.5
 50
89.99999
 51
180.0
  0
ARC
  8
0
  6
CONTINUOUS
 62
     7
 10
184.8368
 20
-127.5
 40
0.5
 50
0.0
 51
89.99999
  0
ARC
  8
0
  6
CONTINUOUS
 62
     7
 10
177.9368
 20
-129.6
 40
5.0
 50
60.50768
 51
119.4923
  0
ARC
  8
0
  6
CONTINUOUS
 62
     7
 10
180.0701
 20
-125.8281
 40
0.66667
 50
0.0
 51
60.50805
  0
ARC
  8
0
  6
CONTINUOUS
 62
     7
 10
175.8035
 20
-125.8281
 40
0.66667
 50
119.4919
 51
180.0
  0
ARC
  8
0
  6
CONTINUOUS
 62
     7
 10
331.9368
 20
-50.00003
 40
0.5
 50
270.0
 51
0.0
  0
ARC
  8
0
  6
CONTINUOUS
 62
     7
 10
308.9368
 20
-50.00003
 40
0.5
 50
180.0
 51
270.0
  0
ARC
  8
0
  6
CONTINUOUS
 62
     7
 10
314.1368
 20
-46.00003
 40
0.5
 50
0.0
 51
89.99999
  0
ARC
  8
0
  6
CONTINUOUS
 62
     7
 10
315.1368
 20
-50.00003
 40
0.5
 50
180.0
 51
270.0
  0
ARC
  8
0
  6
CONTINUOUS
 62
     7
 10
308.9368
 20
-45.00003
 40
0.5
 50
180.0
 51
270.0
  0
ARC
  8
0
  6
CONTINUOUS
 62
     7
 10
311.4368
 20
-42.90002
 40
5.00001
 50
240.5075
 51
299.4925
  0
ARC
  8
0
  6
CONTINUOUS
 62
     7
 10
313.5702
 20
-46.67186
 40
0.66667
 50
299.4933
 51
0.0
  0
ARC
  8
0
  6
CONTINUOUS
 62
     7
 10
309.3035
 20
-46.67186
 40
0.66666
 50
180.0
 51
240.5067
  0
ARC
  8
0
  6
CONTINUOUS
 62
     7
 10
280.2065
 20
42.42258
 40
3.27325
 50
57.27267
 51
117.2713
  0
ARC
  8
0
  6
CONTINUOUS
 62
     7
 10
277.265
 20
21.13332
 40
0.66667
 50
89.99999
 51
150.5081
  0
ARC
  8
0
  6
CONTINUOUS
 62
     7
 10
277.265
 20
16.86664
 40
0.66668
 50
209.4919
 51
270.0
  0
ARC
  8
0
  6
CONTINUOUS
 62
     7
 10
285.8369
 20
33.39835
 40
12.29748
 50
73.2847
 51
106.7152
  0
ARC
  8
0
  6
CONTINUOUS
 62
     7
 10
291.4672
 20
42.42256
 40
3.27327
 50
62.72706
 51
122.7271
  0
ARC
  8
0
  6
CONTINUOUS
 62
     7
 10
329.4368
 20
24.49997
 40
6.0
 50
73.80876
 51
106.1912
  0
ARC
  8
0
  6
CONTINUOUS
 62
     7
 10
330.8868
 20
29.49373
 40
0.79999
 50
0.0
 51
73.8082
  0
ARC
  8
0
  6
CONTINUOUS
 62
     7
 10
327.9868
 20
29.49373
 40
0.8
 50
106.1918
 51
180.0
  0
ARC
  8
0
  6
CONTINUOUS
 62
     7
 10
311.4368
 20
24.49995
 40
6.0
 50
73.80875
 51
106.1912
  0
ARC
  8
0
  6
CONTINUOUS
 62
     7
 10
309.9868
 20
29.4937
 40
0.8
 50
106.1918
 51
118.0148
  0
ARC
  8
0
  6
CONTINUOUS
 62
     7
 10
312.8868
 20
29.4937
 40
0.80001
 50
61.98518
 51
73.8082
  0
ARC
  8
0
  6
CONTINUOUS
 62
     7
 10
278.9368
 20
12.09998
 40
0.5
 50
180.0
 51
270.0
  0
ARC
  8
0
  6
CONTINUOUS
 62
     7
 10
278.9368
 20
25.89998
 40
0.5
 50
89.99999
 51
180.0
  0
ARC
  8
0
  6
CONTINUOUS
 62
     7
 10
278.9368
 20
12.09998
 40
0.5
 50
180.0
 51
270.0
  0
ARC
  8
0
  6
CONTINUOUS
 62
     7
 10
278.9368
 20
25.89998
 40
0.5
 50
89.99999
 51
180.0
  0
ARC
  8
0
  6
CONTINUOUS
 62
     7
 10
281.0369
 20
18.99997
 40
5.00001
 50
150.5076
 51
209.4923
  0
CIRCLE
  8
0
  6
CONTINUOUS
 62
     7
 10
-189.9368
 20
-1.5
 40
1.65
  0
ARC
  8
0
  6
CONTINUOUS
 62
     7
 10
-196.9368
 20
-50.0
 40
0.5
 50
180.0
 51
270.0
  0
ARC
  8
0
  6
CONTINUOUS
 62
     7
 10
-182.9368
 20
-50.0
 40
0.5
 50
270.0
 51
0.0
  0
ARC
  8
0
  6
CONTINUOUS
 62
     7
 10
-191.7368
 20
-46.0
 40
0.5
 50
0.0
 51
89.99999
  0
ARC
  8
0
  6
CONTINUOUS
 62
     7
 10
-196.9368
 20
-45.0
 40
0.5
 50
180.0
 51
270.0
  0
ARC
  8
0
  6
CONTINUOUS
 62
     7
 10
-190.7368
 20
-50.0
 40
0.5
 50
180.0
 51
270.0
  0
CIRCLE
  8
0
  6
CONTINUOUS
 62
     7
 10
-186.9368
 20
-24.0
 40
1.75
  0
CIRCLE
  8
0
  6
CONTINUOUS
 62
     7
 10
-186.9368
 20
-24.0
 40
2.5
  0
CIRCLE
  8
0
  6
CONTINUOUS
 62
     7
 10
-195.4368
 20
-20.0
 40
1.4
  0
CIRCLE
  8
0
  6
CONTINUOUS
 62
     7
 10
-184.4368
 20
-38.0
 40
1.4
  0
ARC
  8
0
  6
CONTINUOUS
 62
     7
 10
-184.4368
 20
-38.0
 40
2.7
 50
42.20544
 51
317.7946
  0
ARC
  8
0
  6
CONTINUOUS
 62
     7
 10
-195.4368
 20
-20.0
 40
2.7
 50
0.0
 51
137.7946
  0
ARC
  8
0
  6
CONTINUOUS
 62
     7
 10
-195.4368
 20
-20.0
 40
2.7
 50
222.2054
 51
0.0
  0
ARC
  8
0
  6
CONTINUOUS
 62
     7
 10
-194.4368
 20
-42.89999
 40
5.0
 50
240.5077
 51
299.4923
  0
ARC
  8
0
  6
CONTINUOUS
 62
     7
 10
-196.5701
 20
-46.67183
 40
0.66667
 50
180.0
 51
240.5079
  0
ARC
  8
0
  6
CONTINUOUS
 62
     7
 10
-192.3034
 20
-46.67183
 40
0.66666
 50
299.4921
 51
0.0
  0
CIRCLE
  8
0
  6
CONTINUOUS
 62
     7
 10
-189.9368
 20
19.0
 40
3.25
  0
ARC
  8
0
  6
CONTINUOUS
 62
     7
 10
-193.2802
 20
35.84848
 40
9.84738
 50
71.30404
 51
108.696
  0
ARC
  8
0
  6
CONTINUOUS
 62
     7
 10
-189.9368
 20
17.7272
 40
0.60001
 50
44.99961
 51
135.0004
  0
ARC
  8
0
  6
CONTINUOUS
 62
     7
 10
-186.5933
 20
35.84848
 40
9.84738
 50
71.30404
 51
108.696
  0
ARC
  8
0
  6
CONTINUOUS
 62
     7
 10
-196.8368
 20
12.10001
 40
0.5
 50
180.0
 51
270.0
  0
ARC
  8
0
  6
CONTINUOUS
 62
     7
 10
-183.0368
 20
12.10001
 40
0.5
 50
270.0
 51
0.0
  0
ARC
  8
0
  6
CONTINUOUS
 62
     7
 10
-196.8368
 20
25.89999
 40
0.5
 50
89.99999
 51
180.0
  0
ARC
  8
0
  6
CONTINUOUS
 62
     7
 10
-183.0368
 20
25.89999
 40
0.5
 50
0.0
 51
89.99999
  0
CIRCLE
  8
0
  6
CONTINUOUS
 62
     7
 10
-189.9368
 20
19.0
 40
2.8
  0
ARC
  8
0
  6
CONTINUOUS
 62
     7
 10
-189.9368
 20
20.2728
 40
0.6
 50
224.9995
 51
315.0004
  0
ARC
  8
0
  6
CONTINUOUS
 62
     7
 10
-191.2096
 20
19.0
 40
0.60001
 50
315.0004
 51
44.99961
  0
ARC
  8
0
  6
CONTINUOUS
 62
     7
 10
-188.664
 20
19.0
 40
0.60001
 50
135.0004
 51
224.9995
  0
ARC
  8
0
  6
CONTINUOUS
 62
     7
 10
-194.4368
 20
124.0
 40
3.0
 50
0.0
 51
89.99999
  0
ARC
  8
0
  6
CONTINUOUS
 62
     7
 10
-185.4368
 20
142.0
 40
3.0
 50
180.0
 51
270.0
  0
ARC
  8
0
  6
CONTINUOUS
 62
     7
 10
-194.4368
 20
124.0
 40
2.55
 50
186.7562
 51
173.2436
  0
ARC
  8
0
  6
CONTINUOUS
 62
     7
 10
-185.4368
 20
142.0
 40
2.55
 50
6.75641
 51
353.2436
  0
CIRCLE
  8
0
  6
CONTINUOUS
 62
     7
 10
-194.4368
 20
124.0
 40
2.25
  0
ARC
  8
0
  6
CONTINUOUS
 62
     7
 10
-193.3337
 20
124.0
 40
0.52
 50
134.9994
 51
225.0006
  0
ARC
  8
0
  6
CONTINUOUS
 62
     7
 10
-194.4368
 20
125.1031
 40
0.52
 50
225.0006
 51
314.9994
  0
ARC
  8
0
  6
CONTINUOUS
 62
     7
 10
-194.4368
 20
122.8969
 40
0.52
 50
45.0006
 51
134.9994
  0
ARC
  8
0
  6
CONTINUOUS
 62
     7
 10
-195.5399
 20
124.0
 40
0.52
 50
314.9994
 51
45.0006
  0
CIRCLE
  8
0
  6
CONTINUOUS
 62
     7
 10
-185.4368
 20
142.0
 40
2.25
  0
ARC
  8
0
  6
CONTINUOUS
 62
     7
 10
-184.3337
 20
142.0
 40
0.51999
 50
135.0
 51
225.0
  0
ARC
  8
0
  6
CONTINUOUS
 62
     7
 10
-185.4368
 20
143.1031
 40
0.51999
 50
225.0
 51
315.0
  0
ARC
  8
0
  6
CONTINUOUS
 62
     7
 10
-185.4368
 20
140.8969
 40
0.51999
 50
45.0
 51
135.0
  0
ARC
  8
0
  6
CONTINUOUS
 62
     7
 10
-186.5399
 20
142.0
 40
0.51999
 50
315.0
 51
45.0
  0
ARC
  8
0
  6
CONTINUOUS
 62
     7
 10
-182.9368
 20
144.5
 40
0.5
 50
0.0
 51
89.99999
  0
ARC
  8
0
  6
CONTINUOUS
 62
     7
 10
-196.9368
 20
144.5
 40
0.5
 50
89.99999
 51
180.0
  0
CIRCLE
  8
0
  6
CONTINUOUS
 62
     7
 10
-189.9368
 20
98.40001
 40
7.4
  0
CIRCLE
  8
0
  6
CONTINUOUS
 62
     7
 10
-189.9368
 20
98.40001
 40
3.8
  0
CIRCLE
  8
0
  6
CONTINUOUS
 62
     7
 10
-189.9368
 20
98.40001
 40
5.8
  0
ARC
  8
0
  6
CONTINUOUS
 62
     7
 10
-196.8368
 20
91.5
 40
0.5
 50
180.0
 51
270.0
  0
ARC
  8
0
  6
CONTINUOUS
 62
     7
 10
-189.9368
 20
93.60001
 40
5.0
 50
240.5077
 51
299.4923
  0
ARC
  8
0
  6
CONTINUOUS
 62
     7
 10
-187.8035
 20
89.82817
 40
0.66667
 50
299.4919
 51
0.0
  0
ARC
  8
0
  6
CONTINUOUS
 62
     7
 10
-192.0701
 20
89.82817
 40
0.66667
 50
180.0
 51
240.508
  0
ARC
  8
0
  6
CONTINUOUS
 62
     7
 10
-183.0368
 20
91.5
 40
0.5
 50
270.0
 51
0.0
  0
ARC
  8
0
  6
CONTINUOUS
 62
     7
 10
-344.9368
 20
-50.00003
 40
0.5
 50
180.0
 51
270.0
  0
ARC
  8
0
  6
CONTINUOUS
 62
     7
 10
-321.9368
 20
-50.00003
 40
0.5
 50
270.0
 51
0.0
  0
ARC
  8
0
  6
CONTINUOUS
 62
     7
 10
-327.1368
 20
-46.00003
 40
0.5
 50
89.99999
 51
180.0
  0
ARC
  8
0
  6
CONTINUOUS
 62
     7
 10
-328.1368
 20
-50.00003
 40
0.5
 50
270.0
 51
0.0
  0
ARC
  8
0
  6
CONTINUOUS
 62
     7
 10
-321.9368
 20
-45.00003
 40
0.5
 50
270.0
 51
0.0
  0
ARC
  8
0
  6
CONTINUOUS
 62
     7
 10
-324.4368
 20
-42.90002
 40
5.00001
 50
240.5075
 51
299.4925
  0
ARC
  8
0
  6
CONTINUOUS
 62
     7
 10
-326.5701
 20
-46.67184
 40
0.66666
 50
180.0
 51
240.5067
  0
ARC
  8
0
  6
CONTINUOUS
 62
     7
 10
-322.3034
 20
-46.67184
 40
0.66667
 50
299.4933
 51
0.0
  0
ARC
  8
0
  6
CONTINUOUS
 62
     7
 10
-290.265
 20
21.1333
 40
0.66668
 50
29.49191
 51
89.99999
  0
ARC
  8
0
  6
CONTINUOUS
 62
     7
 10
-298.8368
 20
33.39835
 40
12.29749
 50
73.28471
 51
106.7153
  0
ARC
  8
0
  6
CONTINUOUS
 62
     7
 10
-293.2064
 20
42.42258
 40
3.27325
 50
62.72872
 51
122.7273
  0
ARC
  8
0
  6
CONTINUOUS
 62
     7
 10
-304.4671
 20
42.42256
 40
3.27326
 50
57.27284
 51
117.2729
  0
ARC
  8
0
  6
CONTINUOUS
 62
     7
 10
-324.4368
 20
24.49997
 40
6.0
 50
73.80876
 51
106.1912
  0
ARC
  8
0
  6
CONTINUOUS
 62
     7
 10
-322.9868
 20
29.49371
 40
0.79999
 50
0.0
 51
73.8082
  0
ARC
  8
0
  6
CONTINUOUS
 62
     7
 10
-325.8868
 20
29.49371
 40
0.8
 50
106.1918
 51
180.0
  0
ARC
  8
0
  6
CONTINUOUS
 62
     7
 10
-342.4368
 20
24.49997
 40
6.0
 50
73.80875
 51
106.1912
  0
ARC
  8
0
  6
CONTINUOUS
 62
     7
 10
-343.8868
 20
29.49371
 40
0.8
 50
106.1918
 51
118.0148
  0
ARC
  8
0
  6
CONTINUOUS
 62
     7
 10
-340.9868
 20
29.49371
 40
0.80001
 50
61.98518
 51
73.8082
  0
ARC
  8
0
  6
CONTINUOUS
 62
     7
 10
-291.9368
 20
12.09998
 40
0.5
 50
270.0
 51
0.0
  0
ARC
  8
0
  6
CONTINUOUS
 62
     7
 10
-291.9368
 20
25.89996
 40
0.5
 50
0.0
 51
89.99999
  0
ARC
  8
0
  6
CONTINUOUS
 62
     7
 10
-294.0368
 20
18.99997
 40
5.0
 50
330.5077
 51
29.49234
  0
ARC
  8
0
  6
CONTINUOUS
 62
     7
 10
-290.265
 20
16.86664
 40
0.66667
 50
270.0
 51
330.5081
  0
ARC
  8
0
  6
CONTINUOUS
 62
     7
 10
-35.93675
 20
-50.0
 40
0.5
 50
270.0
 51
0.0
  0
ARC
  8
0
  6
CONTINUOUS
 62
     7
 10
-58.93675
 20
-50.0
 40
0.5
 50
180.0
 51
270.0
  0
ARC
  8
0
  6
CONTINUOUS
 62
     7
 10
-41.13675
 20
-46.0
 40
0.5
 50
89.99999
 51
180.0
  0
ARC
  8
0
  6
CONTINUOUS
 62
     7
 10
-42.13675
 20
-50.0
 40
0.5
 50
270.0
 51
0.0
  0
ARC
  8
0
  6
CONTINUOUS
 62
     7
 10
-35.93675
 20
-45.0
 40
0.5
 50
270.0
 51
0.0
  0
ARC
  8
0
  6
CONTINUOUS
 62
     7
 10
-38.43675
 20
-42.89999
 40
5.0
 50
240.5076
 51
299.4923
  0
ARC
  8
0
  6
CONTINUOUS
 62
     7
 10
-40.57008
 20
-46.67183
 40
0.66667
 50
180.0
 51
240.5076
  0
ARC
  8
0
  6
CONTINUOUS
 62
     7
 10
-36.30342
 20
-46.67183
 40
0.66667
 50
299.4924
 51
0.0
  0
ARC
  8
0
  6
CONTINUOUS
 62
     7
 10
-87.6671
 20
42.42261
 40
3.27325
 50
57.27255
 51
117.2711
  0
ARC
  8
0
  6
CONTINUOUS
 62
     7
 10
-90.60858
 20
21.13333
 40
0.66667
 50
89.99999
 51
150.5078
  0
ARC
  8
0
  6
CONTINUOUS
 62
     7
 10
-90.60858
 20
16.86667
 40
0.66667
 50
209.4922
 51
270.0
  0
ARC
  8
0
  6
CONTINUOUS
 62
     7
 10
-82.03674
 20
33.39838
 40
12.29748
 50
73.2847
 51
106.7152
  0
ARC
  8
0
  6
CONTINUOUS
 62
     7
 10
-76.4064
 20
42.42259
 40
3.27327
 50
62.72706
 51
122.7273
  0
ARC
  8
0
  6
CONTINUOUS
 62
     7
 10
-38.43675
 20
24.5
 40
6.0
 50
73.80869
 51
106.1913
  0
ARC
  8
0
  6
CONTINUOUS
 62
     7
 10
-36.98674
 20
29.49374
 40
0.8
 50
0.0
 51
73.80872
  0
ARC
  8
0
  6
CONTINUOUS
 62
     7
 10
-39.88676
 20
29.49374
 40
0.8
 50
106.1913
 51
180.0
  0
ARC
  8
0
  6
CONTINUOUS
 62
     7
 10
-56.43675
 20
24.5
 40
6.0
 50
73.80865
 51
106.1913
  0
ARC
  8
0
  6
CONTINUOUS
 62
     7
 10
-57.88676
 20
29.49374
 40
0.8
 50
106.1913
 51
118.0138
  0
ARC
  8
0
  6
CONTINUOUS
 62
     7
 10
-54.98674
 20
29.49374
 40
0.8
 50
61.98614
 51
73.80872
  0
ARC
  8
0
  6
CONTINUOUS
 62
     7
 10
-88.93675
 20
12.10001
 40
0.5
 50
180.0
 51
270.0
  0
ARC
  8
0
  6
CONTINUOUS
 62
     7
 10
-88.93675
 20
25.89999
 40
0.5
 50
89.99999
 51
180.0
  0
ARC
  8
0
  6
CONTINUOUS
 62
     7
 10
-88.93675
 20
12.10001
 40
0.5
 50
180.0
 51
270.0
  0
ARC
  8
0
  6
CONTINUOUS
 62
     7
 10
-88.93675
 20
25.89999
 40
0.5
 50
89.99999
 51
180.0
  0
ARC
  8
0
  6
CONTINUOUS
 62
     7
 10
-86.83675
 20
19.0
 40
5.0
 50
150.5076
 51
209.4923
  0
ARC
  8
0
  6
CONTINUOUS
 62
     7
 10
-194.4368
 20
-159.9999
 40
3.2
 50
270.0
 51
0.0
  0
ARC
  8
0
  6
CONTINUOUS
 62
     7
 10
-185.4368
 20
-177.9999
 40
3.2
 50
89.99999
 51
180.0
  0
ARC
  8
0
  6
CONTINUOUS
 62
     7
 10
-193.383
 20
-168.2466
 40
0.35345
 50
0.0
 51
89.99999
  0
ARC
  8
0
  6
CONTINUOUS
 62
     7
 10
-190.467
 20
-170.1465
 40
0.35345
 50
270.0
 51
0.0
  0
ARC
  8
0
  6
CONTINUOUS
 62
     7
 10
-190.64368474
 20
-168.4233
 40
0.5302
 50
0.0
 51
89.99999
  0
ARC
  8
0
  6
CONTINUOUS
 62
     7
 10
-187.4184
 20
-168.2466
 40
0.35345
 50
0.0
 51
89.99999
  0
ARC
  8
0
  6
CONTINUOUS
 62
     7
 10
-187.4184
 20
-168.529
 40
0.35346
 50
295.0008
 51
0.0
  0
ARC
  8
0
  6
CONTINUOUS
 62
     7
 10
-184.679
 20
-167.8932
 40
0.53019
 50
291.6884
 51
0.0
  0
ARC
  8
0
  6
CONTINUOUS
 62
     7
 10
-184.8558
 20
-167.7733
 40
0.17672
 50
291.6875
 51
0.0
  0
ARC
  8
0
  6
CONTINUOUS
 62
     7
 10
-196.9368
 20
-180.4999
 40
0.5
 50
180.0
 51
270.0
  0
ARC
  8
0
  6
CONTINUOUS
 62
     7
 10
-182.9368
 20
-180.4999
 40
0.5
 50
270.0
 51
0.0
  0
CIRCLE
  8
0
  6
CONTINUOUS
 62
     7
 10
-194.4368
 20
-159.9999
 40
2.8
  0
ARC
  8
0
  6
CONTINUOUS
 62
     7
 10
-195.7095
 20
-159.9999
 40
0.60001
 50
315.0
 51
45.0
  0
ARC
  8
0
  6
CONTINUOUS
 62
     7
 10
-194.4368
 20
-161.2727
 40
0.60001
 50
45.0
 51
135.0
  0
ARC
  8
0
  6
CONTINUOUS
 62
     7
 10
-194.4368
 20
-158.7271
 40
0.60001
 50
225.0
 51
315.0
  0
ARC
  8
0
  6
CONTINUOUS
 62
     7
 10
-193.164
 20
-159.9999
 40
0.60001
 50
135.0
 51
225.0
  0
CIRCLE
  8
0
  6
CONTINUOUS
 62
     7
 10
-185.4368
 20
-177.9999
 40
2.8
  0
ARC
  8
0
  6
CONTINUOUS
 62
     7
 10
-186.7096
 20
-177.9999
 40
0.60001
 50
315.0
 51
45.0
  0
ARC
  8
0
  6
CONTINUOUS
 62
     7
 10
-185.4368
 20
-179.2727
 40
0.60001
 50
45.0
 51
135.0
  0
ARC
  8
0
  6
CONTINUOUS
 62
     7
 10
-185.4368
 20
-176.7271
 40
0.60001
 50
225.0
 51
315.0
  0
ARC
  8
0
  6
CONTINUOUS
 62
     7
 10
-184.164
 20
-177.9999
 40
0.60001
 50
135.0
 51
225.0
  0
ARC
  8
0
  6
CONTINUOUS
 62
     7
 10
-196.8368
 20
-127.4999
 40
0.5
 50
89.99999
 51
180.0
  0
ARC
  8
0
  6
CONTINUOUS
 62
     7
 10
-183.0368
 20
-127.4999
 40
0.5
 50
0.0
 51
89.99999
  0
ARC
  8
0
  6
CONTINUOUS
 62
     7
 10
-189.9368
 20
-129.5999
 40
5.0
 50
60.50768
 51
119.4923
  0
ARC
  8
0
  6
CONTINUOUS
 62
     7
 10
-187.8034
 20
-125.8281
 40
0.66667
 50
0.0
 51
60.50805
  0
ARC
  8
0
  6
CONTINUOUS
 62
     7
 10
-192.0701
 20
-125.8281
 40
0.66667
 50
119.4919
 51
180.0
  0
CIRCLE
  8
0
  6
CONTINUOUS
 62
     7
 10
177.9368
 20
-1.5
 40
1.65
  0
ARC
  8
0
  6
CONTINUOUS
 62
     7
 10
170.9368
 20
-50.0
 40
0.5
 50
180.0
 51
270.0
  0
ARC
  8
0
  6
CONTINUOUS
 62
     7
 10
184.9368
 20
-50.0
 40
0.5
 50
270.0
 51
0.0
  0
ARC
  8
0
  6
CONTINUOUS
 62
     7
 10
176.1368
 20
-46.0
 40
0.5
 50
0.0
 51
89.99999
  0
ARC
  8
0
  6
CONTINUOUS
 62
     7
 10
170.9368
 20
-45.0
 40
0.5
 50
180.0
 51
270.0
  0
ARC
  8
0
  6
CONTINUOUS
 62
     7
 10
177.1368
 20
-50.0
 40
0.5
 50
180.0
 51
270.0
  0
CIRCLE
  8
0
  6
CONTINUOUS
 62
     7
 10
172.4368
 20
-20.0
 40
1.4
  0
CIRCLE
  8
0
  6
CONTINUOUS
 62
     7
 10
183.4368
 20
-38.0
 40
1.4
  0
ARC
  8
0
  6
CONTINUOUS
 62
     7
 10
183.4368
 20
-38.0
 40
2.7
 50
42.20544
 51
317.7946
  0
ARC
  8
0
  6
CONTINUOUS
 62
     7
 10
172.4368
 20
-20.0
 40
2.7
 50
0.0
 51
137.7946
  0
ARC
  8
0
  6
CONTINUOUS
 62
     7
 10
172.4368
 20
-20.0
 40
2.7
 50
222.2054
 51
0.0
  0
ARC
  8
0
  6
CONTINUOUS
 62
     7
 10
173.4368
 20
-42.89999
 40
5.0
 50
240.5077
 51
299.4923
  0
ARC
  8
0
  6
CONTINUOUS
 62
     7
 10
171.3034
 20
-46.67183
 40
0.66667
 50
180.0
 51
240.5079
  0
ARC
  8
0
  6
CONTINUOUS
 62
     7
 10
175.5701
 20
-46.67183
 40
0.66666
 50
299.4921
 51
0.0
  0
CIRCLE
  8
0
  6
CONTINUOUS
 62
     7
 10
177.9368
 20
19.0
 40
3.25
  0
ARC
  8
0
  6
CONTINUOUS
 62
     7
 10
174.5933
 20
35.84848
 40
9.84738
 50
71.30404
 51
108.696
  0
ARC
  8
0
  6
CONTINUOUS
 62
     7
 10
177.9368
 20
17.72722
 40
0.60001
 50
44.99961
 51
135.0004
  0
ARC
  8
0
  6
CONTINUOUS
 62
     7
 10
181.2802
 20
35.84848
 40
9.84738
 50
71.30404
 51
108.696
  0
ARC
  8
0
  6
CONTINUOUS
 62
     7
 10
171.0368
 20
12.10001
 40
0.5
 50
180.0
 51
270.0
  0
ARC
  8
0
  6
CONTINUOUS
 62
     7
 10
184.8368
 20
12.10001
 40
0.5
 50
270.0
 51
0.0
  0
ARC
  8
0
  6
CONTINUOUS
 62
     7
 10
171.0368
 20
25.90001
 40
0.5
 50
89.99999
 51
180.0
  0
ARC
  8
0
  6
CONTINUOUS
 62
     7
 10
184.8368
 20
25.90001
 40
0.5
 50
0.0
 51
89.99999
  0
CIRCLE
  8
0
  6
CONTINUOUS
 62
     7
 10
177.9368
 20
19.0
 40
2.8
  0
ARC
  8
0
  6
CONTINUOUS
 62
     7
 10
177.9368
 20
20.2728
 40
0.6
 50
224.9995
 51
315.0004
  0
ARC
  8
0
  6
CONTINUOUS
 62
     7
 10
176.664
 20
19.0
 40
0.60001
 50
315.0004
 51
44.99961
  0
ARC
  8
0
  6
CONTINUOUS
 62
     7
 10
179.2096
 20
19.0
 40
0.60001
 50
135.0004
 51
224.9995
  0
ARC
  8
0
  6
CONTINUOUS
 62
     7
 10
173.4368
 20
124.0
 40
3.0
 50
0.0
 51
89.99999
  0
ARC
  8
0
  6
CONTINUOUS
 62
     7
 10
182.4368
 20
142.0
 40
3.0
 50
180.0
 51
270.0
  0
ARC
  8
0
  6
CONTINUOUS
 62
     7
 10
173.4368
 20
124.0
 40
2.55
 50
186.7562
 51
173.2436
  0
ARC
  8
0
  6
CONTINUOUS
 62
     7
 10
182.4368
 20
142.0
 40
2.55
 50
6.75641
 51
353.2436
  0
CIRCLE
  8
0
  6
CONTINUOUS
 62
     7
 10
173.4368
 20
124.0
 40
2.25
  0
ARC
  8
0
  6
CONTINUOUS
 62
     7
 10
174.5399
 20
124.0
 40
0.52
 50
134.9994
 51
225.0006
  0
ARC
  8
0
  6
CONTINUOUS
 62
     7
 10
173.4368
 20
125.1031
 40
0.52
 50
225.0006
 51
314.9994
  0
ARC
  8
0
  6
CONTINUOUS
 62
     7
 10
173.4368
 20
122.8969
 40
0.52
 50
45.0006
 51
134.9994
  0
ARC
  8
0
  6
CONTINUOUS
 62
     7
 10
172.3337
 20
124.0
 40
0.52
 50
314.9994
 51
45.0006
  0
CIRCLE
  8
0
  6
CONTINUOUS
 62
     7
 10
182.4368
 20
142.0
 40
2.25
  0
ARC
  8
0
  6
CONTINUOUS
 62
     7
 10
183.5399
 20
142.0
 40
0.51999
 50
135.0
 51
225.0
  0
ARC
  8
0
  6
CONTINUOUS
 62
     7
 10
182.4368
 20
143.1031
 40
0.51999
 50
225.0
 51
315.0
  0
ARC
  8
0
  6
CONTINUOUS
 62
     7
 10
182.4368
 20
140.8969
 40
0.51999
 50
45.0
 51
135.0
  0
ARC
  8
0
  6
CONTINUOUS
 62
     7
 10
181.3337
 20
142.0
 40
0.51999
 50
315.0
 51
45.0
  0
ARC
  8
0
  6
CONTINUOUS
 62
     7
 10
184.9368
 20
144.5
 40
0.5
 50
0.0
 51
89.99999
  0
ARC
  8
0
  6
CONTINUOUS
 62
     7
 10
170.9368
 20
144.5
 40
0.5
 50
89.99999
 51
180.0
  0
CIRCLE
  8
0
  6
CONTINUOUS
 62
     7
 10
177.9368
 20
98.39999
 40
7.4
  0
CIRCLE
  8
0
  6
CONTINUOUS
 62
     7
 10
177.9368
 20
98.39999
 40
3.8
  0
CIRCLE
  8
0
  6
CONTINUOUS
 62
     7
 10
177.9368
 20
98.39999
 40
5.8
  0
ARC
  8
0
  6
CONTINUOUS
 62
     7
 10
171.0367
 20
91.49998
 40
0.5
 50
180.0
 51
270.0
  0
ARC
  8
0
  6
CONTINUOUS
 62
     7
 10
177.9368
 20
93.59999
 40
5.0
 50
240.5077
 51
299.4923
  0
ARC
  8
0
  6
CONTINUOUS
 62
     7
 10
180.0701
 20
89.82816
 40
0.66667
 50
297.70140689
 51
0.0
  0
ARC
  8
0
  6
CONTINUOUS
 62
     7
 10
175.8034
 20
89.82816
 40
0.66667
 50
180.0
 51
240.508
  0
ARC
  8
0
  6
CONTINUOUS
 62
     7
 10
184.8368
 20
91.49998
 40
0.5
 50
270.0
 51
0.0
  0
ARC
  8
0
  6
CONTINUOUS
 62
     7
 10
22.9368
 20
-50.00005
 40
0.5
 50
180.0
 51
270.0
  0
ARC
  8
0
  6
CONTINUOUS
 62
     7
 10
45.9368
 20
-50.00005
 40
0.5
 50
270.0
 51
0.0
  0
ARC
  8
0
  6
CONTINUOUS
 62
     7
 10
40.73682
 20
-46.00005
 40
0.5
 50
89.99999
 51
180.0
  0
ARC
  8
0
  6
CONTINUOUS
 62
     7
 10
39.73682
 20
-50.00005
 40
0.5
 50
270.0
 51
0.0
  0
ARC
  8
0
  6
CONTINUOUS
 62
     7
 10
45.9368
 20
-45.00005
 40
0.5
 50
270.0
 51
0.0
  0
ARC
  8
0
  6
CONTINUOUS
 62
     7
 10
43.4368
 20
-42.90004
 40
5.0
 50
240.5076
 51
299.4923
  0
ARC
  8
0
  6
CONTINUOUS
 62
     7
 10
41.30347
 20
-46.67186
 40
0.66667
 50
180.0
 51
240.5076
  0
ARC
  8
0
  6
CONTINUOUS
 62
     7
 10
45.57013
 20
-46.67186
 40
0.66667
 50
299.4924
 51
0.0
  0
ARC
  8
0
  6
CONTINUOUS
 62
     7
 10
77.60861
 20
21.13329
 40
0.66667
 50
29.49223
 51
89.99999
  0
ARC
  8
0
  6
CONTINUOUS
 62
     7
 10
69.0368
 20
33.39833
 40
12.29749
 50
73.28474
 51
106.7153
  0
ARC
  8
0
  6
CONTINUOUS
 62
     7
 10
74.66714
 20
42.42256
 40
3.27325
 50
62.72885
 51
122.7273
  0
ARC
  8
0
  6
CONTINUOUS
 62
     7
 10
63.40646
 20
42.42255
 40
3.27327
 50
57.27274
 51
117.2729
  0
ARC
  8
0
  6
CONTINUOUS
 62
     7
 10
43.4368
 20
24.49995
 40
6.0
 50
73.80869
 51
106.1913
  0
ARC
  8
0
  6
CONTINUOUS
 62
     7
 10
44.88681
 20
29.4937
 40
0.8
 50
0.0
 51
73.80872
  0
ARC
  8
0
  6
CONTINUOUS
 62
     7
 10
41.98679
 20
29.4937
 40
0.8
 50
106.1913
 51
180.0
  0
ARC
  8
0
  6
CONTINUOUS
 62
     7
 10
25.4368
 20
24.49995
 40
6.0
 50
73.80865
 51
106.1913
  0
ARC
  8
0
  6
CONTINUOUS
 62
     7
 10
23.98679
 20
29.4937
 40
0.8
 50
106.1914
 51
118.0138
  0
ARC
  8
0
  6
CONTINUOUS
 62
     7
 10
26.88681
 20
29.4937
 40
0.8
 50
61.98614
 51
73.80872
  0
ARC
  8
0
  6
CONTINUOUS
 62
     7
 10
75.9368
 20
12.09996
 40
0.5
 50
270.0
 51
0.0
  0
ARC
  8
0
  6
CONTINUOUS
 62
     7
 10
75.9368
 20
25.89995
 40
0.5
 50
0.0
 51
89.99999
  0
ARC
  8
0
  6
CONTINUOUS
 62
     7
 10
73.83679
 20
18.99995
 40
5.0
 50
330.5077
 51
29.49238
  0
ARC
  8
0
  6
CONTINUOUS
 62
     7
 10
77.60861
 20
16.86662
 40
0.66667
 50
270.0
 51
330.5078
  0
TEXT
  8
0
  6
CONTINUOUS
 62
     7
 10
-350.9787
 20
200.5946
 40
8.5
  1
MODEL : 110E1-39
 41
0.8
  7
STANDARD
  0
TEXT
  8
0
  6
CONTINUOUS
 62
     7
 10
229.0661
 20
236.2625
 40
8.5
  1
DATE : NOV ,1989
 41
0.8
  7
STANDARD
  0
TEXT
  8
0
  6
CONTINUOUS
 62
     7
 10
-370.6519
 20
235.5575
 40
10.0
  1
110 CONNECTOR -39
 41
0.73013
  7
STANDARD
  0
TEXT
  8
0
  6
CONTINUOUS
 62
     7
 10
19.88928
 20
200.5946
 40
8.5
  1
MODEL : A110E1-39
 41
0.8
  7
STANDARD
  0
TEXT
  8
0
  6
CONTINUOUS
 62
     7
 10
-185.494
 20
-29.48277
 40
2.0
  1
A
 41
0.8
  7
STANDARD
  0
ENDSEC
  0
EOF
