  0
SECTION
  2
HEADER
  9
$ACADVER
  1
AC1002
  9
$INSBASE
 10
0.0
 20
0.0
  9
$EXTMIN
 10
-370.8736
 20
-254.5585
  9
$EXTMAX
 10
370.8736
 20
254.5585
  9
$LIMMIN
 10
0.0
 20
0.0
  9
$LIMMAX
 10
12.0
 20
9.0
  9
$VIEWCTR
 10
28.6093211
 20
0.0
  9
$VIEWSIZE
 40
509.117
  9
$SNAPMODE
 70
     0
  9
$SNAPUNIT
 10
1.0
 20
1.0
  9
$SNAPBASE
 10
0.0
 20
0.0
  9
$SNAPANG
 50
0.0
  9
$SNAPSTYLE
 70
     0
  9
$SNAPISOPAIR
 70
     0
  9
$GRIDMODE
 70
     0
  9
$GRIDUNIT
 10
0.0
 20
0.0
  9
$ORTHOMODE
 70
     0
  9
$REGENMODE
 70
     1
  9
$FILLMODE
 70
     1
  9
$QTEXTMODE
 70
     0
  9
$DRAGMODE
 70
     2
  9
$LTSCALE
 40
1.0
  9
$OSMODE
 70
     0
  9
$ATTMODE
 70
     1
  9
$TEXTSIZE
 40
0.2
  9
$TRACEWID
 40
0.05
  9
$TEXTSTYLE
  7
AAA
  9
$CLAYER
  8
0
  9
$CELTYPE
  6
BYLAYER
  9
$CECOLOR
 62
   256
  9
$DIMSCALE
 40
1.0
  9
$DIMASZ
 40
0.18
  9
$DIMEXO
 40
0.0625
  9
$DIMDLI
 40
0.38
  9
$DIMRND
 40
0.0
  9
$DIMDLE
 40
0.0
  9
$DIMEXE
 40
0.18
  9
$DIMTP
 40
0.0
  9
$DIMTM
 40
0.0
  9
$DIMTXT
 40
0.18
  9
$DIMCEN
 40
0.09
  9
$DIMTSZ
 40
0.0
  9
$DIMTOL
 70
     0
  9
$DIMLIM
 70
     0
  9
$DIMTIH
 70
     1
  9
$DIMTOH
 70
     1
  9
$DIMSE1
 70
     0
  9
$DIMSE2
 70
     0
  9
$DIMTAD
 70
     0
  9
$DIMZIN
 70
     0
  9
$DIMBLK
  1

  9
$LUNITS
 70
     2
  9
$LUPREC
 70
     4
  9
$AXISMODE
 70
     0
  9
$AXISUNIT
 10
0.0
 20
0.0
  9
$SKETCHINC
 40
0.1
  9
$FILLETRAD
 40
0.0
  9
$AUNITS
 70
     0
  9
$AUPREC
 70
     0
  9
$MENU
  1
ACAD
  9
$ELEVATION
 40
0.0
  9
$THICKNESS
 40
0.0
  9
$VIEWDIR
 10
0.0
 20
0.0
 30
1.0
  9
$LIMCHECK
 70
     0
  9
$BLIPMODE
 70
     1
  9
$CHAMFERA
 40
0.0
  9
$CHAMFERB
 40
0.0
  9
$FASTZOOM
 70
     1
  9
$SKPOLY
 70
     0
  9
$TDCREATE
 40
2447868.7792245863
  9
$TDUPDATE
 40
2447868.7792245863
  9
$TDINDWG
 40
0.0008680556
  9
$TDUSRTIMER
 40
0.0008680556
  9
$USRTIMER
 70
     1
  9
$ANGBASE
 50
0.0
  9
$ANGDIR
 70
     0
  9
$PDMODE
 70
     0
  9
$PDSIZE
 40
0.0
  9
$PLINEWID
 40
0.0
  9
$COORDS
 70
     0
  9
$USERI1
 70
     0
  9
$USERI2
 70
     0
  9
$USERI3
 70
     0
  9
$USERI4
 70
     0
  9
$USERI5
 70
     0
  9
$USERR1
 40
0.0
  9
$USERR2
 40
0.0
  9
$USERR3
 40
0.0
  9
$USERR4
 40
0.0
  9
$USERR5
 40
0.0
  0
ENDSEC
  0
SECTION
  2
TABLES
  0
TABLE
  2
LTYPE
 70
     3
  0
LTYPE
  2
CONTINUOUS
 70
    64
  3
SOLID
 72
    65
 73
     0
 40
0.0
  0
LTYPE
  2
DASHED
 70
    64
  3
DASHED
 72
    65
 73
     2
 40
0.75
 49
0.5
 49
-0.25
  0
LTYPE
  2
CENTER
 70
    64
  3
CENTER
 72
    65
 73
     4
 40
2.0
 49
1.25
 49
-0.25
 49
0.25
 49
-0.25
  0
ENDTAB
  0
TABLE
  2
LAYER
 70
     1
  0
LAYER
  2
0
 70
    64
 62
     7
  6
CONTINUOUS
  0
ENDTAB
  0
TABLE
  2
STYLE
 70
     2
  0
STYLE
  2
AAA
 70
     0
 40
0.0
 41
1.0
 50
0.0
 71
     0
 42
0.2
  3
TXT
  4

  0
STYLE
  2
STANDARD
 70
    64
 40
0.0
 41
1.0
 50
0.0
 71
     0
 42
0.2
  3
TXT
  4
BIGFONT
  0
ENDTAB
  0
TABLE
  2
VIEW
 70
     0
  0
ENDTAB
  0
ENDSEC
  0
SECTION
  2
BLOCKS
  0
ENDSEC
  0
SECTION
  2
ENTITIES
  0
POINT
  8
0
  6
CONTINUOUS
 62
     7
 10
-206.4368
 20
130.0
  0
POINT
  8
0
  6
CONTINUOUS
 62
     7
 10
-182.4368
 20
130.0
  0
POINT
  8
0
  6
CONTINUOUS
 62
     7
 10
-185.4368
 20
131.0
  0
POINT
  8
0
  6
CONTINUOUS
 62
     7
 10
-182.4368
 20
0.0
  0
POINT
  8
0
  6
CONTINUOUS
 62
     7
 10
-185.4368
 20
-24.5
  0
POINT
  8
0
  6
CONTINUOUS
 62
     7
 10
-206.4368
 20
0.0
  0
POINT
  8
0
  6
CONTINUOUS
 62
     7
 10
-182.4368
 20
18.5
  0
POINT
  8
0
  6
CONTINUOUS
 62
     7
 10
-55.43671
 20
-24.49997
  0
POINT
  8
0
  6
CONTINUOUS
 62
     7
 10
-47.93671
 20
-3.99997
  0
POINT
  8
0
  6
CONTINUOUS
 62
     7
 10
-56.43671
 20
0.00003
  0
POINT
  8
0
  6
CONTINUOUS
 62
     7
 10
-43.43671
 20
0.00003
  0
POINT
  8
0
  6
CONTINUOUS
 62
     7
 10
-50.93671
 20
18.50003
  0
POINT
  8
0
  6
CONTINUOUS
 62
     7
 10
-301.4368
 20
0.00006
  0
POINT
  8
0
  6
CONTINUOUS
 62
     7
 10
-302.4368
 20
-24.49994
  0
POINT
  8
0
  6
CONTINUOUS
 62
     7
 10
-309.9368
 20
1.00006
  0
POINT
  8
0
  6
CONTINUOUS
 62
     7
 10
-306.9368
 20
-8.99994
  0
POINT
  8
0
  6
CONTINUOUS
 62
     7
 10
-206.4368
 20
-120.0
  0
POINT
  8
0
  6
CONTINUOUS
 62
     7
 10
-182.4368
 20
-120.0
  0
POINT
  8
0
  6
CONTINUOUS
 62
     7
 10
-185.4368
 20
-121.0
  0
POINT
  8
0
  6
CONTINUOUS
 62
     7
 10
-182.4368
 20
-125.5
  0
POINT
  8
0
  6
CONTINUOUS
 62
     7
 10
172.4368
 20
182.1
  0
POINT
  8
0
  6
CONTINUOUS
 62
     7
 10
185.4368
 20
182.1
  0
POINT
  8
0
  6
CONTINUOUS
 62
     7
 10
172.4368
 20
0.0
  0
POINT
  8
0
  6
CONTINUOUS
 62
     7
 10
185.4368
 20
0.0
  0
POINT
  8
0
  6
CONTINUOUS
 62
     7
 10
177.9368
 20
18.5
  0
POINT
  8
0
  6
CONTINUOUS
 62
     7
 10
332.4367
 20
0.0
  0
POINT
  8
0
  6
CONTINUOUS
 62
     7
 10
308.4367
 20
18.5
  0
POINT
  8
0
  6
CONTINUOUS
 62
     7
 10
22.4368
 20
0.0
  0
POINT
  8
0
  6
CONTINUOUS
 62
     7
 10
46.4368
 20
0.0
  0
POINT
  8
0
  6
CONTINUOUS
 62
     7
 10
46.4368
 20
18.5
  0
POINT
  8
0
  6
CONTINUOUS
 62
     7
 10
172.4368
 20
-172.1
  0
POINT
  8
0
  6
CONTINUOUS
 62
     7
 10
185.4367
 20
-172.1
  0
POINT
  8
0
  6
CONTINUOUS
 62
     7
 10
177.9368
 20
-148.1
  0
LINE
  8
0
  6
CONTINUOUS
 62
     7
 10
218.3292
 20
-225.9564
 11
370.8736
 21
-225.9564
  0
LINE
  8
0
  6
CONTINUOUS
 62
     7
 10
-218.3292
 20
225.9564
 11
-218.3292
 21
254.5585
  0
LINE
  8
0
  6
CONTINUOUS
 62
     7
 10
-370.8736
 20
225.9564
 11
-218.3292
 21
225.9564
  0
LINE
  8
0
  6
CONTINUOUS
 62
     7
 10
-370.8736
 20
254.5585
 11
370.8736
 21
254.5585
  0
LINE
  8
0
  6
CONTINUOUS
 62
     7
 10
-370.8736
 20
-254.5585
 11
370.8736
 21
-254.5585
  0
LINE
  8
0
  6
CONTINUOUS
 62
     7
 10
370.8736
 20
254.5585
 11
370.8736
 21
-254.5585
  0
LINE
  8
0
  6
CONTINUOUS
 62
     7
 10
-370.8736
 20
-254.5585
 11
-370.8736
 21
254.5585
  0
LINE
  8
0
  6
CONTINUOUS
 62
     7
 10
218.3292
 20
-225.9564
 11
218.3292
 21
-254.5585
  0
LINE
  8
0
  6
CONTINUOUS
 62
     7
 10
218.3292
 20
254.5585
 11
218.3292
 21
225.9564
  0
LINE
  8
0
  6
CONTINUOUS
 62
     7
 10
218.3292
 20
225.9564
 11
370.8736
 21
225.9564
  0
LINE
  8
0
  6
CONTINUOUS
 62
     7
 10
258.3816
 20
-232.8337
 11
258.3816
 21
-236.1516
  0
LINE
  8
0
  6
CONTINUOUS
 62
     7
 10
258.3816
 20
-236.1516
 11
270.8235
 21
-236.1516
  0
LINE
  8
0
  6
CONTINUOUS
 62
     7
 10
258.3816
 20
-249.1465
 11
275.2473
 21
-249.1465
  0
LINE
  8
0
  6
CONTINUOUS
 62
     7
 10
258.3816
 20
-245.8286
 11
270.8235
 21
-245.8286
  0
LINE
  8
0
  6
CONTINUOUS
 62
     7
 10
258.3816
 20
-232.8337
 11
273.0354
 21
-232.8337
  0
LINE
  8
0
  6
CONTINUOUS
 62
     7
 10
270.8235
 20
-236.1516
 11
270.8235
 21
-245.8286
  0
LINE
  8
0
  6
CONTINUOUS
 62
     7
 10
275.2473
 20
-235.0457
 11
275.2473
 21
-249.1465
  0
LINE
  8
0
  6
CONTINUOUS
 62
     7
 10
258.3816
 20
-245.8286
 11
258.3816
 21
-249.1465
  0
LINE
  8
0
  6
CONTINUOUS
 62
     7
 10
293.4954
 20
-236.1516
 11
293.4954
 21
-246.9346
  0
LINE
  8
0
  6
CONTINUOUS
 62
     7
 10
277.7357
 20
-232.8337
 11
277.7357
 21
-236.1516
  0
LINE
  8
0
  6
CONTINUOUS
 62
     7
 10
293.9378
 20
-232.585
 11
295.5138
 21
-232.585
  0
LINE
  8
0
  6
CONTINUOUS
 62
     7
 10
293.9378
 20
-230.373
 11
295.5138
 21
-230.373
  0
LINE
  8
0
  6
CONTINUOUS
 62
     7
 10
295.5138
 20
-230.373
 11
295.5138
 21
-232.585
  0
LINE
  8
0
  6
CONTINUOUS
 62
     7
 10
293.9378
 20
-230.373
 11
293.9378
 21
-232.585
  0
LINE
  8
0
  6
CONTINUOUS
 62
     7
 10
293.1083
 20
-230.373
 11
293.1083
 21
-232.585
  0
LINE
  8
0
  6
CONTINUOUS
 62
     7
 10
282.7661
 20
-230.373
 11
286.2009
 21
-230.373
  0
LINE
  8
0
  6
CONTINUOUS
 62
     7
 10
285.5413
 20
-232.8335
 11
286.2006
 21
-230.3727
  0
LINE
  8
0
  6
CONTINUOUS
 62
     7
 10
282.1067
 20
-232.8337
 11
282.766
 21
-230.373
  0
LINE
  8
0
  6
CONTINUOUS
 62
     7
 10
285.5416
 20
-232.8337
 11
290.1776
 21
-232.8337
  0
LINE
  8
0
  6
CONTINUOUS
 62
     7
 10
284.6526
 20
-236.1516
 11
289.0716
 21
-236.1516
  0
LINE
  8
0
  6
CONTINUOUS
 62
     7
 10
286.6429
 20
-249.1465
 11
291.2836
 21
-249.1465
  0
LINE
  8
0
  6
CONTINUOUS
 62
     7
 10
285.7537
 20
-245.8286
 11
286.6427
 21
-249.1463
  0
LINE
  8
0
  6
CONTINUOUS
 62
     7
 10
285.7538
 20
-245.8286
 11
289.0716
 21
-245.8286
  0
LINE
  8
0
  6
CONTINUOUS
 62
     7
 10
281.1707
 20
-249.1466
 11
284.6527
 21
-236.1517
  0
LINE
  8
0
  6
CONTINUOUS
 62
     7
 10
277.7357
 20
-236.1516
 11
281.2177
 21
-236.1516
  0
LINE
  8
0
  6
CONTINUOUS
 62
     7
 10
277.7354
 20
-249.1462
 11
281.2175
 21
-236.1513
  0
LINE
  8
0
  6
CONTINUOUS
 62
     7
 10
277.7357
 20
-249.1465
 11
281.1706
 21
-249.1465
  0
LINE
  8
0
  6
CONTINUOUS
 62
     7
 10
277.7357
 20
-232.8337
 11
282.1067
 21
-232.8337
  0
LINE
  8
0
  6
CONTINUOUS
 62
     7
 10
289.0716
 20
-236.1516
 11
289.0716
 21
-245.8286
  0
LINE
  8
0
  6
CONTINUOUS
 62
     7
 10
291.5323
 20
-230.373
 11
293.1083
 21
-230.373
  0
LINE
  8
0
  6
CONTINUOUS
 62
     7
 10
291.5323
 20
-232.585
 11
293.1083
 21
-232.585
  0
LINE
  8
0
  6
CONTINUOUS
 62
     7
 10
291.5323
 20
-230.373
 11
291.5323
 21
-232.585
  0
LINE
  8
0
  6
CONTINUOUS
 62
     7
 10
301.5135
 20
-230.373
 11
305.9373
 21
-230.373
  0
LINE
  8
0
  6
CONTINUOUS
 62
     7
 10
308.3423
 20
-240.1951
 11
311.2962
 21
-238.8176
  0
LINE
  8
0
  6
CONTINUOUS
 62
     7
 10
305.9373
 20
-242.7344
 11
305.9373
 21
-249.1465
  0
LINE
  8
0
  6
CONTINUOUS
 62
     7
 10
301.5135
 20
-243.379
 11
301.5135
 21
-249.1465
  0
LINE
  8
0
  6
CONTINUOUS
 62
     7
 10
305.9373
 20
-232.8337
 11
310.3611
 21
-232.8337
  0
LINE
  8
0
  6
CONTINUOUS
 62
     7
 10
305.9373
 20
-230.373
 11
305.9373
 21
-232.8337
  0
LINE
  8
0
  6
CONTINUOUS
 62
     7
 10
301.5135
 20
-230.373
 11
301.5135
 21
-232.8337
  0
LINE
  8
0
  6
CONTINUOUS
 62
     7
 10
312.573
 20
-235.0457
 11
312.573
 21
-236.8128
  0
LINE
  8
0
  6
CONTINUOUS
 62
     7
 10
308.3424
 20
-240.195
 11
312.5734
 21
-242.168
  0
LINE
  8
0
  6
CONTINUOUS
 62
     7
 10
305.9373
 20
-242.7343
 11
312.5731
 21
-245.8286
  0
LINE
  8
0
  6
CONTINUOUS
 62
     7
 10
296.2603
 20
-242.1678
 11
296.2603
 21
-245.8286
  0
LINE
  8
0
  6
CONTINUOUS
 62
     7
 10
296.2607
 20
-242.1682
 11
309.1626
 21
-236.1519
  0
LINE
  8
0
  6
CONTINUOUS
 62
     7
 10
296.2603
 20
-245.8286
 11
301.5136
 21
-243.3789
  0
LINE
  8
0
  6
CONTINUOUS
 62
     7
 10
312.573
 20
-242.1678
 11
312.573
 21
-245.8286
  0
LINE
  8
0
  6
CONTINUOUS
 62
     7
 10
296.2603
 20
-232.8337
 11
296.2603
 21
-236.1516
  0
LINE
  8
0
  6
CONTINUOUS
 62
     7
 10
301.5135
 20
-249.1465
 11
305.9373
 21
-249.1465
  0
LINE
  8
0
  6
CONTINUOUS
 62
     7
 10
296.2603
 20
-236.1516
 11
309.1621
 21
-236.1516
  0
LINE
  8
0
  6
CONTINUOUS
 62
     7
 10
296.2603
 20
-232.8337
 11
301.5135
 21
-232.8337
  0
LINE
  8
0
  6
CONTINUOUS
 62
     7
 10
327.504
 20
-236.4047
 11
328.73
 21
-235.9171
  0
LINE
  8
0
  6
CONTINUOUS
 62
     7
 10
327.5034
 20
-236.4044
 11
327.5034
 21
-249.1465
  0
LINE
  8
0
  6
CONTINUOUS
 62
     7
 10
323.0795
 20
-249.1465
 11
327.5034
 21
-249.1465
  0
LINE
  8
0
  6
CONTINUOUS
 62
     7
 10
313.9553
 20
-241.7925
 11
323.0794
 21
-238.1637
  0
LINE
  8
0
  6
CONTINUOUS
 62
     7
 10
313.9555
 20
-238.222
 11
326.8062
 21
-233.1111
  0
LINE
  8
0
  6
CONTINUOUS
 62
     7
 10
323.0795
 20
-238.1638
 11
323.0795
 21
-249.1465
  0
LINE
  8
0
  6
CONTINUOUS
 62
     7
 10
327.5034
 20
-231.3684
 11
327.5034
 21
-232.0834
  0
LINE
  8
0
  6
CONTINUOUS
 62
     7
 10
330.8211
 20
-231.3684
 11
330.8211
 21
-232.8338
  0
LINE
  8
0
  6
CONTINUOUS
 62
     7
 10
313.9554
 20
-238.2219
 11
313.9554
 21
-241.7925
  0
LINE
  8
0
  6
CONTINUOUS
 62
     7
 10
327.5034
 20
-231.3684
 11
330.8211
 21
-231.3684
  0
LINE
  8
0
  6
CONTINUOUS
 62
     7
 10
0.0
 20
254.5585
 11
0.0
 21
-254.5585
  0
LINE
  8
0
  6
CONTINUOUS
 62
     7
 10
-206.4368
 20
5.0
 11
-182.4368
 21
5.0
  0
LINE
  8
0
  6
CENTER
 62
     2
 10
-194.4368
 20
53.0
 11
-194.4368
 21
-28.16396
  0
LINE
  8
0
  6
CONTINUOUS
 62
     7
 10
-205.9368
 20
-24.5
 11
-188.1868
 21
-24.5
  0
LINE
  8
0
  6
CONTINUOUS
 62
     7
 10
-188.1367
 20
-19.5
 11
-182.6868
 21
-19.5
  0
LINE
  8
0
  6
CENTER
 62
     2
 10
-185.4368
 20
-17.7
 11
-185.4368
 21
-27.14999
  0
LINE
  8
0
  6
CONTINUOUS
 62
     7
 10
-188.6367
 20
-20.0
 11
-188.6367
 21
-24.0
  0
LINE
  8
0
  6
CONTINUOUS
 62
     7
 10
-206.4368
 20
-17.0
 11
-182.4368
 21
-17.0
  0
LINE
  8
0
  6
CENTER
 62
     2
 10
-186.8527
 20
0.0
 11
-181.1682
 21
0.0
  0
LINE
  8
0
  6
CONTINUOUS
 62
     7
 10
-185.4368
 20
1.81384
 11
-182.4368
 21
1.81384
  0
LINE
  8
0
  6
CONTINUOUS
 62
     7
 10
-185.4368
 20
-1.81383
 11
-182.4368
 21
-1.81383
  0
LINE
  8
0
  6
CONTINUOUS
 62
     7
 10
-185.4368
 20
1.81384
 11
-185.4368
 21
-1.81383
  0
LINE
  8
0
  6
CENTER
 62
     2
 10
-190.9368
 20
1.0
 11
-185.9368
 21
1.0
  0
LINE
  8
0
  6
CENTER
 62
     2
 10
-190.9368
 20
-13.0
 11
-185.9368
 21
-13.0
  0
LINE
  8
0
  6
CENTER
 62
     2
 10
-188.4368
 20
-10.5
 11
-188.4368
 21
-15.5
  0
LINE
  8
0
  6
CENTER
 62
     2
 10
-188.4368
 20
3.5
 11
-188.4368
 21
-1.5
  0
LINE
  8
0
  6
CONTINUOUS
 62
     7
 10
-188.1868
 20
-19.5
 11
-188.1868
 21
-24.7
  0
LINE
  8
0
  6
CONTINUOUS
 62
     7
 10
-182.6868
 20
-19.5
 11
-182.6868
 21
-24.7
  0
LINE
  8
0
  6
CONTINUOUS
 62
     7
 10
-188.1868
 20
-24.7
 11
-182.6868
 21
-24.7
  0
LINE
  8
0
  6
CONTINUOUS
 62
     7
 10
-206.4368
 20
22.0
 11
-206.4368
 21
-24.0
  0
LINE
  8
0
  6
CONTINUOUS
 62
     7
 10
-182.4368
 20
22.0
 11
-182.4368
 21
-24.0
  0
LINE
  8
0
  6
CONTINUOUS
 62
     7
 10
-183.9633
 20
-23.7
 11
-183.9633
 21
-24.7
  0
LINE
  8
0
  6
CONTINUOUS
 62
     7
 10
-183.1148
 20
-23.7
 11
-183.1148
 21
-24.7
  0
LINE
  8
0
  6
CONTINUOUS
 62
     7
 10
-183.9633
 20
-23.7
 11
-183.1148
 21
-23.7
  0
LINE
  8
0
  6
CONTINUOUS
 62
     7
 10
-206.4368
 20
47.20001
 11
-179.4368
 21
47.20001
  0
LINE
  8
0
  6
CONTINUOUS
 62
     7
 10
-206.4368
 20
22.0
 11
-175.4368
 21
22.0
  0
LINE
  8
0
  6
CONTINUOUS
 62
     7
 10
-206.4368
 20
48.19998
 11
-206.4368
 21
22.0
  0
LINE
  8
0
  6
CONTINUOUS
 62
     7
 10
-182.4368
 20
48.19998
 11
-182.4368
 21
47.20001
  0
LINE
  8
0
  6
CONTINUOUS
 62
     7
 10
-205.4368
 20
50.20001
 11
-187.2625
 21
50.20001
  0
LINE
  8
0
  6
CONTINUOUS
 62
     7
 10
-206.4368
 20
48.20001
 11
-182.4368
 21
48.20001
  0
LINE
  8
0
  6
CONTINUOUS
 62
     7
 10
-206.4368
 20
48.19997
 11
-205.4368
 21
50.19997
  0
LINE
  8
0
  6
CONTINUOUS
 62
     7
 10
-182.4368
 20
48.2
 11
-183.4368
 21
50.20001
  0
LINE
  8
0
  6
CONTINUOUS
 62
     7
 10
-188.4368
 20
50.20001
 11
-188.4368
 21
48.20001
  0
LINE
  8
0
  6
CENTER
 62
     2
 10
-185.4368
 20
53.20001
 11
-185.4368
 21
44.20001
  0
LINE
  8
0
  6
CONTINUOUS
 62
     7
 10
-182.8868
 20
48.80002
 11
-187.9868
 21
48.80002
  0
LINE
  8
0
  6
CONTINUOUS
 62
     7
 10
-185.7367
 20
48.2
 11
-185.8975
 21
48.79999
  0
LINE
  8
0
  6
CONTINUOUS
 62
     7
 10
-185.1367
 20
48.79999
 11
-184.976
 21
48.2
  0
LINE
  8
0
  6
CONTINUOUS
 62
     7
 10
-182.8867
 20
48.80002
 11
-182.8867
 21
48.20001
  0
LINE
  8
0
  6
CONTINUOUS
 62
     7
 10
-187.9868
 20
48.80002
 11
-187.9868
 21
48.20001
  0
LINE
  8
0
  6
CONTINUOUS
 62
     7
 10
-183.1868
 20
49.49374
 11
-183.1868
 21
48.80002
  0
LINE
  8
0
  6
CONTINUOUS
 62
     7
 10
-187.6867
 20
49.49374
 11
-187.6867
 21
48.79999
  0
LINE
  8
0
  6
CONTINUOUS
 62
     7
 10
-183.611
 20
50.20001
 11
-183.4368
 21
50.20001
  0
LINE
  8
0
  6
CENTER
 62
     2
 10
-203.4368
 20
53.20001
 11
-203.4368
 21
44.19998
  0
LINE
  8
0
  6
CONTINUOUS
 62
     7
 10
-179.4368
 20
47.20001
 11
-179.4368
 21
22.0
  0
LINE
  8
0
  6
CONTINUOUS
 62
     7
 10
-175.4368
 20
47.0
 11
-175.4368
 21
46.39999
  0
LINE
  8
0
  6
CONTINUOUS
 62
     7
 10
-179.4368
 20
47.0
 11
-175.4368
 21
47.0
  0
LINE
  8
0
  6
CENTER
 62
     2
 10
-182.4368
 20
39.0
 11
-147.0368
 21
39.0
  0
LINE
  8
0
  6
CONTINUOUS
 62
     7
 10
-152.4368
 20
65.17624
 11
-152.4368
 21
58.70001
  0
LINE
  8
0
  6
CONTINUOUS
 62
     7
 10
-174.9368
 20
31.60001
 11
-152.9368
 21
31.60001
  0
LINE
  8
0
  6
CONTINUOUS
 62
     7
 10
-174.9368
 20
46.39999
 11
-152.9368
 21
46.39999
  0
LINE
  8
0
  6
CONTINUOUS
 62
     7
 10
-167.2368
 20
65.17624
 11
-167.2368
 21
58.70001
  0
LINE
  8
0
  6
CONTINUOUS
 62
     7
 10
-165.6368
 20
66.10001
 11
-154.0368
 21
66.10001
  0
LINE
  8
0
  6
CONTINUOUS
 62
     7
 10
-151.265
 20
36.20001
 11
-151.9368
 21
36.20001
  0
LINE
  8
0
  6
CONTINUOUS
 62
     7
 10
-151.265
 20
41.80002
 11
-151.9368
 21
41.80002
  0
LINE
  8
0
  6
CONTINUOUS
 62
     7
 10
-151.9368
 20
35.75
 11
-151.9368
 21
42.25
  0
LINE
  8
0
  6
CONTINUOUS
 62
     7
 10
-151.9368
 20
35.75003
 11
-152.4368
 21
35.75003
  0
LINE
  8
0
  6
CONTINUOUS
 62
     7
 10
-151.9368
 20
42.25003
 11
-152.4368
 21
42.25003
  0
LINE
  8
0
  6
CONTINUOUS
 62
     7
 10
-167.2368
 20
58.69998
 11
-152.4368
 21
58.69998
  0
LINE
  8
0
  6
CONTINUOUS
 62
     7
 10
-167.2368
 20
59.69998
 11
-152.4368
 21
59.69998
  0
LINE
  8
0
  6
CONTINUOUS
 62
     7
 10
-164.8368
 20
44.0
 11
-154.8368
 21
44.0
  0
LINE
  8
0
  6
CONTINUOUS
 62
     7
 10
-164.8368
 20
34.0
 11
-154.8368
 21
34.0
  0
LINE
  8
0
  6
CONTINUOUS
 62
     7
 10
-164.8368
 20
44.0
 11
-164.8368
 21
34.0
  0
LINE
  8
0
  6
CONTINUOUS
 62
     7
 10
-154.8368
 20
44.0
 11
-154.8368
 21
34.0
  0
LINE
  8
0
  6
CONTINUOUS
 62
     7
 10
-163.8368
 20
44.0
 11
-163.8368
 21
34.0
  0
LINE
  8
0
  6
CONTINUOUS
 62
     7
 10
-162.8368
 20
44.0
 11
-162.8368
 21
34.0
  0
LINE
  8
0
  6
CONTINUOUS
 62
     7
 10
-161.8368
 20
44.0
 11
-161.8368
 21
34.0
  0
LINE
  8
0
  6
CONTINUOUS
 62
     7
 10
-160.8368
 20
44.0
 11
-160.8368
 21
34.0
  0
LINE
  8
0
  6
CONTINUOUS
 62
     7
 10
-159.8368
 20
44.0
 11
-159.8368
 21
34.0
  0
LINE
  8
0
  6
CONTINUOUS
 62
     7
 10
-158.8368
 20
44.0
 11
-158.8368
 21
34.0
  0
LINE
  8
0
  6
CONTINUOUS
 62
     7
 10
-157.8368
 20
44.0
 11
-157.8368
 21
34.0
  0
LINE
  8
0
  6
CONTINUOUS
 62
     7
 10
-156.8368
 20
44.0
 11
-156.8368
 21
34.0
  0
LINE
  8
0
  6
CONTINUOUS
 62
     7
 10
-155.8368
 20
44.0
 11
-155.8368
 21
34.0
  0
LINE
  8
0
  6
CONTINUOUS
 62
     7
 10
-154.0368
 20
66.09998
 11
-152.4368
 21
65.17622
  0
LINE
  8
0
  6
CONTINUOUS
 62
     7
 10
-165.6368
 20
66.1
 11
-167.2368
 21
65.17624
  0
LINE
  8
0
  6
CONTINUOUS
 62
     7
 10
-163.6974
 20
65.17624
 11
-163.6974
 21
59.70001
  0
LINE
  8
0
  6
CONTINUOUS
 62
     7
 10
-163.3737
 20
65.17624
 11
-163.3737
 21
59.70001
  0
LINE
  8
0
  6
CONTINUOUS
 62
     7
 10
-156.2998
 20
65.17624
 11
-156.2998
 21
59.70001
  0
LINE
  8
0
  6
CONTINUOUS
 62
     7
 10
-155.9761
 20
65.17624
 11
-155.9761
 21
59.70001
  0
LINE
  8
0
  6
CONTINUOUS
 62
     7
 10
-163.6974
 20
65.17624
 11
-163.3737
 21
65.17624
  0
LINE
  8
0
  6
CONTINUOUS
 62
     7
 10
-156.2998
 20
65.17624
 11
-155.9761
 21
65.17624
  0
LINE
  8
0
  6
CENTER
 62
     2
 10
-159.8368
 20
69.10001
 11
-159.8368
 21
28.60001
  0
LINE
  8
0
  6
CONTINUOUS
 62
     7
 10
-175.4368
 20
31.60001
 11
-175.4368
 21
22.0
  0
LINE
  8
0
  6
CONTINUOUS
 62
     7
 10
-167.2368
 20
56.69998
 11
-152.4368
 21
56.69998
  0
LINE
  8
0
  6
CONTINUOUS
 62
     7
 10
-167.2368
 20
56.70001
 11
-167.2368
 21
46.39999
  0
LINE
  8
0
  6
CONTINUOUS
 62
     7
 10
-152.4368
 20
56.70001
 11
-152.4368
 21
32.10001
  0
LINE
  8
0
  6
CONTINUOUS
 62
     7
 10
-153.8368
 20
58.70001
 11
-153.8368
 21
56.70001
  0
LINE
  8
0
  6
CONTINUOUS
 62
     7
 10
-165.8368
 20
58.70001
 11
-165.8368
 21
56.70001
  0
LINE
  8
0
  6
CONTINUOUS
 62
     7
 10
-154.5132
 20
58.70001
 11
-154.5132
 21
56.70001
  0
LINE
  8
0
  6
CONTINUOUS
 62
     7
 10
-165.1603
 20
58.70001
 11
-165.1603
 21
56.70001
  0
LINE
  8
0
  6
CONTINUOUS
 62
     7
 10
-175.4368
 20
46.39999
 11
-175.4368
 21
31.60001
  0
LINE
  8
0
  6
CONTINUOUS
 62
     7
 10
-174.9368
 20
46.39999
 11
-174.9368
 21
31.60001
  0
LINE
  8
0
  6
CONTINUOUS
 62
     7
 10
-175.4368
 20
46.39999
 11
-174.9368
 21
46.39999
  0
LINE
  8
0
  6
CONTINUOUS
 62
     7
 10
-175.4368
 20
31.60001
 11
-174.9368
 21
31.60001
  0
LINE
  8
0
  6
CENTER
 62
     2
 10
-147.9177
 20
135.5
 11
-208.4368
 21
135.5
  0
LINE
  8
0
  6
CENTER
 62
     2
 10
-194.4368
 20
125.5516
 11
-194.4368
 21
145.4878
  0
LINE
  8
0
  6
CONTINUOUS
 62
     7
 10
-182.4368
 20
143.0
 11
-182.4368
 21
128.0
  0
LINE
  8
0
  6
CONTINUOUS
 62
     7
 10
-185.4368
 20
134.0
 11
-182.4368
 21
134.0
  0
LINE
  8
0
  6
CONTINUOUS
 62
     7
 10
-203.4368
 20
137.0
 11
-206.4368
 21
137.0
  0
LINE
  8
0
  6
CONTINUOUS
 62
     7
 10
-200.4368
 20
140.0
 11
-200.4368
 21
143.0
  0
LINE
  8
0
  6
CONTINUOUS
 62
     7
 10
-188.4368
 20
131.0
 11
-188.4368
 21
128.0
  0
LINE
  8
0
  6
CONTINUOUS
 62
     7
 10
-205.4368
 20
137.0
 11
-205.4368
 21
129.0
  0
LINE
  8
0
  6
CONTINUOUS
 62
     7
 10
-183.4368
 20
142.0
 11
-183.4368
 21
134.0
  0
LINE
  8
0
  6
CONTINUOUS
 62
     7
 10
-200.4368
 20
142.0
 11
-183.4368
 21
142.0
  0
LINE
  8
0
  6
CONTINUOUS
 62
     7
 10
-205.4368
 20
129.0
 11
-188.4368
 21
129.0
  0
LINE
  8
0
  6
CONTINUOUS
 62
     7
 10
-185.1368
 20
128.7701
 11
-185.1368
 21
128.4677
  0
LINE
  8
0
  6
CONTINUOUS
 62
     7
 10
-185.7368
 20
128.7701
 11
-185.7368
 21
128.4677
  0
LINE
  8
0
  6
CONTINUOUS
 62
     7
 10
-185.8976
 20
128.492
 11
-185.8976
 21
128.7977
  0
LINE
  8
0
  6
CONTINUOUS
 62
     7
 10
-203.7368
 20
142.2299
 11
-203.7368
 21
142.5323
  0
LINE
  8
0
  6
CONTINUOUS
 62
     7
 10
-203.1368
 20
142.2299
 11
-203.1368
 21
142.5323
  0
LINE
  8
0
  6
CONTINUOUS
 62
     7
 10
-202.976
 20
142.508
 11
-202.976
 21
142.2023
  0
LINE
  8
0
  6
CONTINUOUS
 62
     7
 10
-186.5399
 20
130.2646
 11
-186.1722
 21
130.6323
  0
LINE
  8
0
  6
CONTINUOUS
 62
     7
 10
-186.1722
 20
129.8969
 11
-185.8045
 21
130.2646
  0
LINE
  8
0
  6
CONTINUOUS
 62
     7
 10
-186.5399
 20
130.2646
 11
-186.1722
 21
129.8969
  0
LINE
  8
0
  6
CONTINUOUS
 62
     7
 10
-184.7014
 20
132.1031
 11
-184.3337
 21
131.7354
  0
LINE
  8
0
  6
CONTINUOUS
 62
     7
 10
-187.201
 20
132.3965
 11
-186.1722
 21
131.3677
  0
LINE
  8
0
  6
CONTINUOUS
 62
     7
 10
-186.8333
 20
132.7642
 11
-185.8045
 21
131.7354
  0
LINE
  8
0
  6
CONTINUOUS
 62
     7
 10
-185.0691
 20
131.7354
 11
-184.7014
 21
132.1031
  0
LINE
  8
0
  6
CONTINUOUS
 62
     7
 10
-184.7014
 20
131.3677
 11
-184.3337
 21
131.7354
  0
LINE
  8
0
  6
CONTINUOUS
 62
     7
 10
-185.0691
 20
130.2646
 11
-184.0403
 21
129.2359
  0
LINE
  8
0
  6
CONTINUOUS
 62
     7
 10
-184.7014
 20
130.6323
 11
-183.6726
 21
129.6036
  0
LINE
  8
0
  6
CONTINUOUS
 62
     7
 10
-204.54
 20
139.2647
 11
-204.1723
 21
139.6324
  0
LINE
  8
0
  6
CONTINUOUS
 62
     7
 10
-204.1723
 20
138.897
 11
-203.8046
 21
139.2646
  0
LINE
  8
0
  6
CONTINUOUS
 62
     7
 10
-204.5399
 20
139.2646
 11
-204.1722
 21
138.8969
  0
LINE
  8
0
  6
CONTINUOUS
 62
     7
 10
-202.7014
 20
141.1031
 11
-202.3337
 21
140.7354
  0
LINE
  8
0
  6
CONTINUOUS
 62
     7
 10
-205.201
 20
141.3965
 11
-204.1722
 21
140.3677
  0
LINE
  8
0
  6
CONTINUOUS
 62
     7
 10
-204.8333
 20
141.7642
 11
-203.8045
 21
140.7354
  0
LINE
  8
0
  6
CONTINUOUS
 62
     7
 10
-203.0692
 20
140.7355
 11
-202.7015
 21
141.1031
  0
LINE
  8
0
  6
CONTINUOUS
 62
     7
 10
-202.7015
 20
140.3677
 11
-202.3338
 21
140.7354
  0
LINE
  8
0
  6
CONTINUOUS
 62
     7
 10
-203.0691
 20
139.2646
 11
-202.0403
 21
138.2358
  0
LINE
  8
0
  6
CONTINUOUS
 62
     7
 10
-202.7014
 20
139.6323
 11
-201.6726
 21
138.6035
  0
LINE
  8
0
  6
CENTER
 62
     2
 10
-185.4368
 20
135.0
 11
-185.4368
 21
127.0
  0
LINE
  8
0
  6
CENTER
 62
     2
 10
-203.4368
 20
144.0
 11
-203.4368
 21
136.0
  0
LINE
  8
0
  6
CENTER
 62
     2
 10
-207.4368
 20
140.0
 11
-199.4368
 21
140.0
  0
LINE
  8
0
  6
CENTER
 62
     2
 10
-189.4368
 20
131.0
 11
-181.4368
 21
131.0
  0
LINE
  8
0
  6
CONTINUOUS
 62
     7
 10
-205.9368
 20
143.0
 11
-175.4368
 21
143.0
  0
LINE
  8
0
  6
CONTINUOUS
 62
     7
 10
-206.4368
 20
142.5
 11
-206.4368
 21
128.5
  0
LINE
  8
0
  6
CONTINUOUS
 62
     7
 10
-205.9368
 20
128.0
 11
-175.4368
 21
128.0
  0
LINE
  8
0
  6
CONTINUOUS
 62
     7
 10
-179.4368
 20
143.0
 11
-179.4368
 21
128.0
  0
LINE
  8
0
  6
CONTINUOUS
 62
     7
 10
-175.4368
 20
143.0
 11
-175.4368
 21
142.9
  0
LINE
  8
0
  6
CENTER
 62
     2
 10
-159.8368
 20
145.9
 11
-159.8368
 21
125.1
  0
LINE
  8
0
  6
CONTINUOUS
 62
     7
 10
-163.3738
 20
142.0
 11
-156.2999
 21
142.0
  0
LINE
  8
0
  6
CONTINUOUS
 62
     7
 10
-163.3738
 20
129.0
 11
-156.2999
 21
129.0
  0
LINE
  8
0
  6
CONTINUOUS
 62
     7
 10
-155.9762
 20
141.8131
 11
-152.4392
 21
135.6869
  0
LINE
  8
0
  6
CONTINUOUS
 62
     7
 10
-167.2345
 20
135.3131
 11
-163.6975
 21
129.1869
  0
LINE
  8
0
  6
CONTINUOUS
 62
     7
 10
-152.4392
 20
135.3131
 11
-155.9762
 21
129.1869
  0
LINE
  8
0
  6
CONTINUOUS
 62
     7
 10
-163.6976
 20
141.8131
 11
-167.2345
 21
135.6869
  0
LINE
  8
0
  6
CONTINUOUS
 62
     7
 10
-152.4368
 20
142.4
 11
-152.4368
 21
128.6
  0
LINE
  8
0
  6
CONTINUOUS
 62
     7
 10
-151.265
 20
132.7
 11
-151.9368
 21
132.7
  0
LINE
  8
0
  6
CONTINUOUS
 62
     7
 10
-151.265
 20
138.3
 11
-151.9368
 21
138.3
  0
LINE
  8
0
  6
CONTINUOUS
 62
     7
 10
-151.9368
 20
138.75
 11
-152.4368
 21
138.75
  0
LINE
  8
0
  6
CONTINUOUS
 62
     7
 10
-151.9368
 20
132.25
 11
-151.9368
 21
138.75
  0
LINE
  8
0
  6
CONTINUOUS
 62
     7
 10
-151.9368
 20
132.25
 11
-152.4368
 21
132.25
  0
LINE
  8
0
  6
CONTINUOUS
 62
     7
 10
-175.4368
 20
128.1
 11
-175.4368
 21
128.0
  0
LINE
  8
0
  6
CONTINUOUS
 62
     7
 10
-174.9368
 20
128.1
 11
-152.9368
 21
128.1
  0
LINE
  8
0
  6
CONTINUOUS
 62
     7
 10
-174.9368
 20
142.9
 11
-152.9368
 21
142.9
  0
LINE
  8
0
  6
CONTINUOUS
 62
     7
 10
-175.4368
 20
128.1
 11
-175.4368
 21
142.9
  0
LINE
  8
0
  6
CONTINUOUS
 62
     7
 10
-174.9368
 20
128.1
 11
-174.9368
 21
142.9
  0
LINE
  8
0
  6
CONTINUOUS
 62
     7
 10
-175.4368
 20
128.1
 11
-174.9368
 21
128.1
  0
LINE
  8
0
  6
CONTINUOUS
 62
     7
 10
-175.4368
 20
142.9
 11
-174.9368
 21
142.9
  0
LINE
  8
0
  6
CONTINUOUS
 62
     7
 10
-314.4368
 20
5.00006
 11
-299.4368
 21
5.00006
  0
LINE
  8
0
  6
CENTER
 62
     2
 10
-306.9368
 20
60.66672
 11
-306.9368
 21
-27.85132
  0
LINE
  8
0
  6
CONTINUOUS
 62
     7
 10
-308.6868
 20
-24.49994
 11
-299.9368
 21
-24.49994
  0
LINE
  8
0
  6
CONTINUOUS
 62
     7
 10
-314.1868
 20
-19.49994
 11
-308.6868
 21
-19.49994
  0
LINE
  8
0
  6
CENTER
 62
     2
 10
-311.4368
 20
-18.14993
 11
-311.4368
 21
-26.49846
  0
LINE
  8
0
  6
CONTINUOUS
 62
     7
 10
-308.2368
 20
-19.99994
 11
-308.2368
 21
-23.99994
  0
LINE
  8
0
  6
CONTINUOUS
 62
     7
 10
-314.4368
 20
-16.99994
 11
-299.4368
 21
-16.99994
  0
LINE
  8
0
  6
CONTINUOUS
 62
     7
 10
-314.1868
 20
-19.49994
 11
-314.1868
 21
-24.69992
  0
LINE
  8
0
  6
CONTINUOUS
 62
     7
 10
-308.6868
 20
-19.49994
 11
-308.6868
 21
-24.69992
  0
LINE
  8
0
  6
CONTINUOUS
 62
     7
 10
-314.1868
 20
-24.69992
 11
-308.6868
 21
-24.69992
  0
LINE
  8
0
  6
CENTER
 62
     2
 10
-309.9368
 20
4.50006
 11
-309.9368
 21
-2.49994
  0
LINE
  8
0
  6
CENTER
 62
     2
 10
-312.4368
 20
-9.49994
 11
-312.4368
 21
-14.49994
  0
LINE
  8
0
  6
CENTER
 62
     2
 10
-301.4368
 20
2.50006
 11
-301.4368
 21
-2.49994
  0
LINE
  8
0
  6
CENTER
 62
     2
 10
-314.9368
 20
-11.99994
 11
-309.9368
 21
-11.99994
  0
LINE
  8
0
  6
CENTER
 62
     2
 10
-303.9368
 20
0.00006
 11
-298.9368
 21
0.00006
  0
LINE
  8
0
  6
CENTER
 62
     2
 10
-313.4368
 20
1.00006
 11
-306.4368
 21
1.00006
  0
LINE
  8
0
  6
CENTER
 62
     2
 10
-310.4368
 20
-8.99994
 11
-303.4368
 21
-8.99994
  0
LINE
  8
0
  6
CENTER
 62
     2
 10
-310.4368
 20
13.70007
 11
-303.4368
 21
13.70007
  0
LINE
  8
0
  6
CONTINUOUS
 62
     7
 10
-308.351
 20
15.11425
 11
-305.5226
 21
12.28583
  0
LINE
  8
0
  6
CONTINUOUS
 62
     7
 10
-307.4545
 20
15.63186
 11
-305.005
 21
13.18237
  0
LINE
  8
0
  6
CONTINUOUS
 62
     7
 10
-308.8687
 20
14.21766
 11
-306.4192
 21
11.76816
  0
LINE
  8
0
  6
CONTINUOUS
 62
     7
 10
-308.351
 20
12.28592
 11
-305.5226
 21
15.11435
  0
LINE
  8
0
  6
CONTINUOUS
 62
     7
 10
-307.4544
 20
11.76823
 11
-305.0049
 21
14.21773
  0
LINE
  8
0
  6
CONTINUOUS
 62
     7
 10
-308.8688
 20
13.18252
 11
-306.4193
 21
15.63202
  0
LINE
  8
0
  6
CONTINUOUS
 62
     7
 10
-313.7588
 20
-23.69992
 11
-313.7588
 21
-24.69992
  0
LINE
  8
0
  6
CONTINUOUS
 62
     7
 10
-312.9103
 20
-23.69992
 11
-312.9103
 21
-24.69992
  0
LINE
  8
0
  6
CONTINUOUS
 62
     7
 10
-313.7588
 20
-23.69992
 11
-312.9103
 21
-23.69992
  0
LINE
  8
0
  6
CONTINUOUS
 62
     7
 10
-299.4368
 20
22.00006
 11
-299.4368
 21
-23.99994
  0
LINE
  8
0
  6
CONTINUOUS
 62
     7
 10
-314.4368
 20
22.00006
 11
-314.4368
 21
-23.99994
  0
LINE
  8
0
  6
CONTINUOUS
 62
     7
 10
-314.4368
 20
48.20004
 11
-314.4368
 21
22.00006
  0
LINE
  8
0
  6
CONTINUOUS
 62
     7
 10
-314.4368
 20
22.00006
 11
-299.4368
 21
22.00006
  0
LINE
  8
0
  6
CONTINUOUS
 62
     7
 10
-299.4368
 20
48.20004
 11
-299.4368
 21
22.00006
  0
LINE
  8
0
  6
CONTINUOUS
 62
     7
 10
-308.4368
 20
50.20007
 11
-308.4368
 21
48.20004
  0
LINE
  8
0
  6
CONTINUOUS
 62
     7
 10
-313.4368
 20
44.20007
 11
-300.4368
 21
44.20007
  0
LINE
  8
0
  6
CONTINUOUS
 62
     7
 10
-313.4368
 20
40.20007
 11
-300.4368
 21
40.20007
  0
LINE
  8
0
  6
CONTINUOUS
 62
     7
 10
-300.4368
 20
44.20007
 11
-300.4368
 21
40.20007
  0
LINE
  8
0
  6
CONTINUOUS
 62
     7
 10
-313.4368
 20
44.20004
 11
-313.4368
 21
40.20004
  0
LINE
  8
0
  6
CONTINUOUS
 62
     7
 10
-312.7247
 20
43.30685
 11
-310.383
 21
43.30685
  0
LINE
  8
0
  6
CONTINUOUS
 62
     7
 10
-312.7247
 20
41.23026
 11
-310.7365
 21
41.23026
  0
LINE
  8
0
  6
CONTINUOUS
 62
     7
 10
-312.7247
 20
40.70007
 11
-310.0295
 21
40.70007
  0
LINE
  8
0
  6
CONTINUOUS
 62
     7
 10
-312.7247
 20
42.77664
 11
-310.7365
 21
42.77664
  0
LINE
  8
0
  6
CONTINUOUS
 62
     7
 10
-312.7247
 20
43.30682
 11
-312.7247
 21
42.77664
  0
LINE
  8
0
  6
CONTINUOUS
 62
     7
 10
-310.0295
 20
42.95337
 11
-310.0295
 21
40.70007
  0
LINE
  8
0
  6
CONTINUOUS
 62
     7
 10
-310.7365
 20
42.77664
 11
-310.7365
 21
41.23026
  0
LINE
  8
0
  6
CONTINUOUS
 62
     7
 10
-309.6319
 20
43.30685
 11
-309.6319
 21
42.77664
  0
LINE
  8
0
  6
CONTINUOUS
 62
     7
 10
-307.1135
 20
42.77664
 11
-307.1135
 21
41.0535
  0
LINE
  8
0
  6
CONTINUOUS
 62
     7
 10
-307.8204
 20
42.77664
 11
-307.8204
 21
41.23026
  0
LINE
  8
0
  6
CONTINUOUS
 62
     7
 10
-312.7247
 20
41.23026
 11
-312.7247
 21
40.70004
  0
LINE
  8
0
  6
CONTINUOUS
 62
     7
 10
-309.6319
 20
43.30685
 11
-308.9334
 21
43.30685
  0
LINE
  8
0
  6
CONTINUOUS
 62
     7
 10
-309.6319
 20
40.70007
 11
-309.083
 21
40.70007
  0
LINE
  8
0
  6
CONTINUOUS
 62
     7
 10
-309.6317
 20
40.70002
 11
-309.0753
 21
42.7766
  0
LINE
  8
0
  6
CONTINUOUS
 62
     7
 10
-309.6319
 20
42.77664
 11
-309.0755
 21
42.77664
  0
LINE
  8
0
  6
CONTINUOUS
 62
     7
 10
-309.0831
 20
40.70005
 11
-308.5266
 21
42.77664
  0
LINE
  8
0
  6
CONTINUOUS
 62
     7
 10
-308.3506
 20
41.23026
 11
-307.8204
 21
41.23026
  0
LINE
  8
0
  6
CONTINUOUS
 62
     7
 10
-308.3507
 20
41.23022
 11
-308.2086
 21
40.70003
  0
LINE
  8
0
  6
CONTINUOUS
 62
     7
 10
-308.2086
 20
40.70007
 11
-307.467
 21
40.70007
  0
LINE
  8
0
  6
CONTINUOUS
 62
     7
 10
-308.5266
 20
42.77664
 11
-307.8204
 21
42.77664
  0
LINE
  8
0
  6
CONTINUOUS
 62
     7
 10
-308.3845
 20
43.30685
 11
-307.6437
 21
43.30685
  0
LINE
  8
0
  6
CONTINUOUS
 62
     7
 10
-308.9334
 20
43.30682
 11
-308.8281
 21
43.70004
  0
LINE
  8
0
  6
CONTINUOUS
 62
     7
 10
-308.3844
 20
43.30682
 11
-308.2791
 21
43.70004
  0
LINE
  8
0
  6
CONTINUOUS
 62
     7
 10
-306.6717
 20
43.30685
 11
-305.8322
 21
43.30685
  0
LINE
  8
0
  6
CONTINUOUS
 62
     7
 10
-306.6717
 20
42.77664
 11
-304.61
 21
42.77664
  0
LINE
  8
0
  6
CONTINUOUS
 62
     7
 10
-305.8322
 20
40.70007
 11
-305.1253
 21
40.70007
  0
LINE
  8
0
  6
CONTINUOUS
 62
     7
 10
-306.6717
 20
43.30685
 11
-306.6717
 21
42.77664
  0
LINE
  8
0
  6
CONTINUOUS
 62
     7
 10
-304.0649
 20
41.81525
 11
-304.0649
 21
41.23026
  0
LINE
  8
0
  6
CONTINUOUS
 62
     7
 10
-306.6716
 20
41.23012
 11
-305.8321
 21
41.62158
  0
LINE
  8
0
  6
CONTINUOUS
 62
     7
 10
-306.6717
 20
41.81522
 11
-304.61
 21
42.77662
  0
LINE
  8
0
  6
CONTINUOUS
 62
     7
 10
-306.6717
 20
41.81525
 11
-306.6717
 21
41.23026
  0
LINE
  8
0
  6
CONTINUOUS
 62
     7
 10
-305.1253
 20
41.72473
 11
-304.0649
 21
41.23026
  0
LINE
  8
0
  6
CONTINUOUS
 62
     7
 10
-304.741
 20
42.1305
 11
-304.0648
 21
41.81521
  0
LINE
  8
0
  6
CONTINUOUS
 62
     7
 10
-304.0649
 20
42.95337
 11
-304.0649
 21
42.67099
  0
LINE
  8
0
  6
CONTINUOUS
 62
     7
 10
-305.8322
 20
43.70007
 11
-305.8322
 21
43.30685
  0
LINE
  8
0
  6
CONTINUOUS
 62
     7
 10
-305.1253
 20
43.70007
 11
-305.1253
 21
43.30685
  0
LINE
  8
0
  6
CONTINUOUS
 62
     7
 10
-305.1253
 20
43.30685
 11
-304.4183
 21
43.30685
  0
LINE
  8
0
  6
CONTINUOUS
 62
     7
 10
-305.8322
 20
41.6217
 11
-305.8322
 21
40.70007
  0
LINE
  8
0
  6
CONTINUOUS
 62
     7
 10
-305.1253
 20
41.7247
 11
-305.1253
 21
40.70007
  0
LINE
  8
0
  6
CONTINUOUS
 62
     7
 10
-304.7409
 20
42.13039
 11
-304.2689
 21
42.35049
  0
LINE
  8
0
  6
CONTINUOUS
 62
     7
 10
-301.679
 20
43.54099
 11
-301.1489
 21
43.54099
  0
LINE
  8
0
  6
CONTINUOUS
 62
     7
 10
-303.844
 20
42.4458
 11
-303.844
 21
41.87521
  0
LINE
  8
0
  6
CONTINUOUS
 62
     7
 10
-301.1489
 20
43.54102
 11
-301.1489
 21
43.30685
  0
LINE
  8
0
  6
CONTINUOUS
 62
     7
 10
-301.679
 20
43.54102
 11
-301.679
 21
43.42676
  0
LINE
  8
0
  6
CONTINUOUS
 62
     7
 10
-302.3859
 20
42.45511
 11
-302.3859
 21
40.70007
  0
LINE
  8
0
  6
CONTINUOUS
 62
     7
 10
-303.8439
 20
42.44577
 11
-301.7904
 21
43.26251
  0
LINE
  8
0
  6
CONTINUOUS
 62
     7
 10
-303.844
 20
41.87535
 11
-302.386
 21
42.45522
  0
LINE
  8
0
  6
CONTINUOUS
 62
     7
 10
-302.3859
 20
40.70007
 11
-301.679
 21
40.70007
  0
LINE
  8
0
  6
CONTINUOUS
 62
     7
 10
-301.679
 20
42.73624
 11
-301.679
 21
40.70007
  0
LINE
  8
0
  6
CONTINUOUS
 62
     7
 10
-301.6789
 20
42.73612
 11
-301.483
 21
42.81406
  0
LINE
  8
0
  6
CONTINUOUS
 62
     7
 10
-308.8281
 20
43.70007
 11
-308.2792
 21
43.70007
  0
LINE
  8
0
  6
CONTINUOUS
 62
     7
 10
-307.4007
 20
43.70007
 11
-307.1747
 21
43.70007
  0
LINE
  8
0
  6
CONTINUOUS
 62
     7
 10
-305.8322
 20
43.70007
 11
-305.1253
 21
43.70007
  0
LINE
  8
0
  6
CONTINUOUS
 62
     7
 10
-307.4007
 20
43.34659
 11
-307.1747
 21
43.34659
  0
LINE
  8
0
  6
CONTINUOUS
 62
     7
 10
-307.4007
 20
43.70007
 11
-307.4007
 21
43.34659
  0
LINE
  8
0
  6
CONTINUOUS
 62
     7
 10
-307.1747
 20
43.70007
 11
-307.1747
 21
43.34659
  0
LINE
  8
0
  6
CONTINUOUS
 62
     7
 10
-307.017
 20
43.70007
 11
-307.017
 21
43.34659
  0
LINE
  8
0
  6
CONTINUOUS
 62
     7
 10
-306.791
 20
43.70007
 11
-306.791
 21
43.34659
  0
LINE
  8
0
  6
CONTINUOUS
 62
     7
 10
-307.017
 20
43.70007
 11
-306.791
 21
43.70007
  0
LINE
  8
0
  6
CONTINUOUS
 62
     7
 10
-307.017
 20
43.34659
 11
-306.791
 21
43.34659
  0
LINE
  8
0
  6
CONTINUOUS
 62
     7
 10
-314.4366
 20
48.2
 11
-313.4366
 21
50.2
  0
LINE
  8
0
  6
CONTINUOUS
 62
     7
 10
-313.6868
 20
49.4938
 11
-313.6868
 21
48.80005
  0
LINE
  8
0
  6
CENTER
 62
     2
 10
-311.4368
 20
53.20007
 11
-311.4368
 21
45.20004
  0
LINE
  8
0
  6
CONTINUOUS
 62
     7
 10
-313.4368
 20
50.20007
 11
-313.2625
 21
50.20007
  0
LINE
  8
0
  6
CONTINUOUS
 62
     7
 10
-309.1868
 20
49.4938
 11
-309.1868
 21
48.80005
  0
LINE
  8
0
  6
CONTINUOUS
 62
     7
 10
-309.611
 20
50.20007
 11
-300.4368
 21
50.20007
  0
LINE
  8
0
  6
CENTER
 62
     2
 10
-302.4368
 20
53.20007
 11
-302.4368
 21
45.20007
  0
LINE
  8
0
  6
CONTINUOUS
 62
     7
 10
-299.4367
 20
48.20009
 11
-300.4367
 21
50.20011
  0
LINE
  8
0
  6
CONTINUOUS
 62
     7
 10
-314.4368
 20
48.20004
 11
-299.4368
 21
48.20004
  0
LINE
  8
0
  6
CONTINUOUS
 62
     7
 10
-314.4368
 20
47.20007
 11
-299.4368
 21
47.20007
  0
LINE
  8
0
  6
CONTINUOUS
 62
     7
 10
-308.8868
 20
48.80005
 11
-313.9868
 21
48.80005
  0
LINE
  8
0
  6
CONTINUOUS
 62
     7
 10
-308.8868
 20
48.80005
 11
-308.8868
 21
48.20004
  0
LINE
  8
0
  6
CONTINUOUS
 62
     7
 10
-313.9868
 20
48.80005
 11
-313.9868
 21
48.20004
  0
LINE
  8
0
  6
CONTINUOUS
 62
     7
 10
-314.3368
 20
58.70004
 11
-299.5367
 21
58.70004
  0
LINE
  8
0
  6
CONTINUOUS
 62
     7
 10
-312.7368
 20
66.10007
 11
-301.1368
 21
66.10007
  0
LINE
  8
0
  6
CONTINUOUS
 62
     7
 10
-314.3368
 20
59.70004
 11
-299.5367
 21
59.70004
  0
LINE
  8
0
  6
CONTINUOUS
 62
     7
 10
-299.5367
 20
59.70004
 11
-299.5367
 21
58.70004
  0
LINE
  8
0
  6
CONTINUOUS
 62
     7
 10
-314.3368
 20
59.70004
 11
-314.3368
 21
58.70004
  0
LINE
  8
0
  6
CONTINUOUS
 62
     7
 10
-313.4368
 20
65.69592
 11
-313.4368
 21
59.70004
  0
LINE
  8
0
  6
CONTINUOUS
 62
     7
 10
-300.4368
 20
65.69592
 11
-300.4368
 21
59.70004
  0
LINE
  8
0
  6
CONTINUOUS
 62
     7
 10
-301.1367
 20
66.10006
 11
-300.4368
 21
65.69595
  0
LINE
  8
0
  6
CONTINUOUS
 62
     7
 10
-312.7369
 20
66.1002
 11
-313.4369
 21
65.69605
  0
LINE
  8
0
  6
CONTINUOUS
 62
     7
 10
-307.1237
 20
65.1763
 11
-306.7499
 21
65.1763
  0
LINE
  8
0
  6
CONTINUOUS
 62
     7
 10
-307.1237
 20
65.1763
 11
-307.1237
 21
59.70004
  0
LINE
  8
0
  6
CONTINUOUS
 62
     7
 10
-306.7499
 20
65.1763
 11
-306.7499
 21
59.70004
  0
LINE
  8
0
  6
CONTINUOUS
 62
     7
 10
-314.3368
 20
56.70004
 11
-299.5367
 21
56.70004
  0
LINE
  8
0
  6
CONTINUOUS
 62
     7
 10
-314.3368
 20
56.70004
 11
-314.3368
 21
48.40005
  0
LINE
  8
0
  6
CONTINUOUS
 62
     7
 10
-299.5367
 20
56.70004
 11
-299.5367
 21
48.40005
  0
LINE
  8
0
  6
CONTINUOUS
 62
     7
 10
-312.9368
 20
58.70004
 11
-312.9368
 21
56.70004
  0
LINE
  8
0
  6
CONTINUOUS
 62
     7
 10
-300.9368
 20
58.70004
 11
-300.9368
 21
56.70004
  0
LINE
  8
0
  6
CONTINUOUS
 62
     7
 10
-301.6133
 20
58.70004
 11
-301.6133
 21
56.70004
  0
LINE
  8
0
  6
CONTINUOUS
 62
     7
 10
-312.2603
 20
58.70004
 11
-312.2603
 21
56.70004
  0
LINE
  8
0
  6
CONTINUOUS
 62
     7
 10
-58.43671
 20
5.00003
 11
-43.43671
 21
5.00003
  0
LINE
  8
0
  6
CENTER
 62
     2
 10
-50.93671
 20
69.46069
 11
-50.93671
 21
-27.85135
  0
LINE
  8
0
  6
CENTER
 62
     2
 10
-53.32166
 20
18.50003
 11
-48.47505
 21
18.50003
  0
LINE
  8
0
  6
CONTINUOUS
 62
     7
 10
-52.68671
 20
-24.49997
 11
-43.93671
 21
-24.49997
  0
LINE
  8
0
  6
CONTINUOUS
 62
     7
 10
-58.18671
 20
-19.49997
 11
-52.68671
 21
-19.49997
  0
LINE
  8
0
  6
CENTER
 62
     2
 10
-55.43671
 20
-18.14996
 11
-55.43671
 21
-26.49849
  0
LINE
  8
0
  6
CONTINUOUS
 62
     7
 10
-52.23671
 20
-19.99997
 11
-52.23671
 21
-23.99997
  0
LINE
  8
0
  6
CENTER
 62
     2
 10
-59.00749
 20
0.00003
 11
-52.89865
 21
0.00003
  0
LINE
  8
0
  6
CENTER
 62
     2
 10
-45.43671
 20
-8.47296
 11
-45.43671
 21
-15.41014
  0
LINE
  8
0
  6
CENTER
 62
     2
 10
-56.43671
 20
3.43942
 11
-56.43671
 21
-3.34244
  0
LINE
  8
0
  6
CONTINUOUS
 62
     7
 10
-58.43671
 20
-16.99997
 11
-43.43671
 21
-16.99997
  0
LINE
  8
0
  6
CENTER
 62
     2
 10
-47.93671
 20
-0.49997
 11
-47.93671
 21
-7.49997
  0
LINE
  8
0
  6
CENTER
 62
     2
 10
-51.43671
 20
-3.99997
 11
-44.43671
 21
-3.99997
  0
LINE
  8
0
  6
CONTINUOUS
 62
     7
 10
-58.18671
 20
-19.49997
 11
-58.18671
 21
-24.69997
  0
LINE
  8
0
  6
CONTINUOUS
 62
     7
 10
-52.68671
 20
-19.49997
 11
-52.68671
 21
-24.69997
  0
LINE
  8
0
  6
CONTINUOUS
 62
     7
 10
-58.18671
 20
-24.69997
 11
-52.68671
 21
-24.69997
  0
LINE
  8
0
  6
CONTINUOUS
 62
     7
 10
-58.43671
 20
22.00003
 11
-58.43671
 21
-23.99997
  0
LINE
  8
0
  6
CONTINUOUS
 62
     7
 10
-43.43671
 20
22.00003
 11
-43.43671
 21
-23.99997
  0
LINE
  8
0
  6
CONTINUOUS
 62
     7
 10
-57.75871
 20
-23.69997
 11
-57.75871
 21
-24.69997
  0
LINE
  8
0
  6
CONTINUOUS
 62
     7
 10
-56.91022
 20
-23.69997
 11
-56.91022
 21
-24.69997
  0
LINE
  8
0
  6
CONTINUOUS
 62
     7
 10
-57.75871
 20
-23.69997
 11
-56.91022
 21
-23.69997
  0
LINE
  8
0
  6
CENTER
 62
     2
 10
-51.66861
 20
-11.99997
 11
-42.85529
 21
-11.99997
  0
LINE
  8
0
  6
CONTINUOUS
 62
     7
 10
-58.43671
 20
48.20004
 11
-58.43671
 21
22.00003
  0
LINE
  8
0
  6
CONTINUOUS
 62
     7
 10
-58.43671
 20
47.20004
 11
-58.33672
 21
47.20004
  0
LINE
  8
0
  6
CONTINUOUS
 62
     7
 10
-43.43671
 20
48.20004
 11
-43.43671
 21
22.00003
  0
LINE
  8
0
  6
CONTINUOUS
 62
     7
 10
-58.43671
 20
22.00003
 11
-43.43671
 21
22.00003
  0
LINE
  8
0
  6
CONTINUOUS
 62
     7
 10
-58.43671
 20
48.20001
 11
-58.33672
 21
48.20001
  0
LINE
  8
0
  6
CONTINUOUS
 62
     7
 10
-43.43671
 20
48.20002
 11
-43.53672
 21
48.40004
  0
LINE
  8
0
  6
CONTINUOUS
 62
     7
 10
-58.43667
 20
48.2
 11
-58.33667
 21
48.4
  0
LINE
  8
0
  6
CONTINUOUS
 62
     7
 10
-57.83672
 20
46.40002
 11
-44.03671
 21
46.40002
  0
LINE
  8
0
  6
CONTINUOUS
 62
     7
 10
-57.83672
 20
31.60004
 11
-44.03671
 21
31.60004
  0
LINE
  8
0
  6
CENTER
 62
     2
 10
-61.43671
 20
39.00003
 11
-40.43671
 21
39.00003
  0
LINE
  8
0
  6
CONTINUOUS
 62
     7
 10
-52.20954
 20
38.15155
 11
-51.78527
 21
38.57582
  0
LINE
  8
0
  6
CONTINUOUS
 62
     7
 10
-51.78525
 20
37.72724
 11
-51.36098
 21
38.1515
  0
LINE
  8
0
  6
CONTINUOUS
 62
     7
 10
-52.20948
 20
38.15152
 11
-51.78521
 21
37.72726
  0
LINE
  8
0
  6
CONTINUOUS
 62
     7
 10
-50.08813
 20
40.27283
 11
-49.66388
 21
39.84858
  0
LINE
  8
0
  6
CONTINUOUS
 62
     7
 10
-53.11731
 20
40.7564
 11
-51.7852
 21
39.42429
  0
LINE
  8
0
  6
CONTINUOUS
 62
     7
 10
-52.69304
 20
41.1807
 11
-51.36094
 21
39.8486
  0
LINE
  8
0
  6
CONTINUOUS
 62
     7
 10
-50.51249
 20
39.8486
 11
-50.08822
 21
40.27287
  0
LINE
  8
0
  6
CONTINUOUS
 62
     7
 10
-50.08818
 20
39.42431
 11
-49.66393
 21
39.84856
  0
LINE
  8
0
  6
CONTINUOUS
 62
     7
 10
-50.51242
 20
38.15151
 11
-49.18032
 21
36.8194
  0
LINE
  8
0
  6
CONTINUOUS
 62
     7
 10
-50.08816
 20
38.57581
 11
-48.75605
 21
37.24371
  0
LINE
  8
0
  6
CONTINUOUS
 62
     7
 10
-58.33672
 20
58.70001
 11
-43.53671
 21
58.70001
  0
LINE
  8
0
  6
CONTINUOUS
 62
     7
 10
-56.73672
 20
66.10001
 11
-45.13672
 21
66.10001
  0
LINE
  8
0
  6
CONTINUOUS
 62
     7
 10
-58.33672
 20
59.70001
 11
-43.53671
 21
59.70001
  0
LINE
  8
0
  6
CONTINUOUS
 62
     7
 10
-43.53671
 20
59.70004
 11
-43.53671
 21
58.70004
  0
LINE
  8
0
  6
CONTINUOUS
 62
     7
 10
-58.3367
 20
59.70001
 11
-58.3367
 21
58.70001
  0
LINE
  8
0
  6
CONTINUOUS
 62
     7
 10
-57.43671
 20
65.69589
 11
-57.43671
 21
59.70001
  0
LINE
  8
0
  6
CONTINUOUS
 62
     7
 10
-44.43671
 20
65.69589
 11
-44.43671
 21
59.70004
  0
LINE
  8
0
  6
CONTINUOUS
 62
     7
 10
-45.13669
 20
66.10005
 11
-44.43669
 21
65.69592
  0
LINE
  8
0
  6
CONTINUOUS
 62
     7
 10
-56.73676
 20
66.10008
 11
-57.43676
 21
65.69594
  0
LINE
  8
0
  6
CONTINUOUS
 62
     7
 10
-51.12363
 20
65.17627
 11
-50.7498
 21
65.17627
  0
LINE
  8
0
  6
CONTINUOUS
 62
     7
 10
-43.53671
 20
48.20001
 11
-43.43671
 21
48.20001
  0
LINE
  8
0
  6
CONTINUOUS
 62
     7
 10
-43.53671
 20
47.20004
 11
-43.43671
 21
47.20004
  0
LINE
  8
0
  6
CONTINUOUS
 62
     7
 10
-50.74979
 20
65.17627
 11
-50.74979
 21
59.70001
  0
LINE
  8
0
  6
CONTINUOUS
 62
     7
 10
-51.12363
 20
65.17627
 11
-51.12363
 21
59.70001
  0
LINE
  8
0
  6
CONTINUOUS
 62
     7
 10
-58.33672
 20
56.70001
 11
-43.53671
 21
56.70001
  0
LINE
  8
0
  6
CONTINUOUS
 62
     7
 10
-58.3367
 20
56.70001
 11
-58.3367
 21
32.10004
  0
LINE
  8
0
  6
CONTINUOUS
 62
     7
 10
-43.53671
 20
56.70004
 11
-43.53671
 21
32.10004
  0
LINE
  8
0
  6
CONTINUOUS
 62
     7
 10
-44.93671
 20
58.70004
 11
-44.93671
 21
56.70004
  0
LINE
  8
0
  6
CONTINUOUS
 62
     7
 10
-56.93671
 20
58.70001
 11
-56.93671
 21
56.70001
  0
LINE
  8
0
  6
CONTINUOUS
 62
     7
 10
-45.6132
 20
58.70004
 11
-45.6132
 21
56.70004
  0
LINE
  8
0
  6
CONTINUOUS
 62
     7
 10
-56.26021
 20
58.70001
 11
-56.26021
 21
56.70001
  0
LINE
  8
0
  6
CENTER
 62
     2
 10
-203.4368
 20
-125.2045
 11
-203.4368
 21
-134.7483
  0
LINE
  8
0
  6
CENTER
 62
     2
 10
-199.0926
 20
-130.0
 11
-208.3404
 21
-130.0
  0
LINE
  8
0
  6
CONTINUOUS
 62
     7
 10
-188.6368
 20
-118.0
 11
-188.6368
 21
-121.0
  0
LINE
  8
0
  6
CONTINUOUS
 62
     7
 10
-200.2368
 20
-130.0
 11
-200.2368
 21
-133.0
  0
LINE
  8
0
  6
CONTINUOUS
 62
     7
 10
-185.4368
 20
-124.2
 11
-182.4368
 21
-124.2
  0
LINE
  8
0
  6
CONTINUOUS
 62
     7
 10
-203.4368
 20
-126.8
 11
-206.4368
 21
-126.8
  0
LINE
  8
0
  6
CENTER
 62
     2
 10
-185.4368
 20
-116.5005
 11
-185.4368
 21
-125.7483
  0
LINE
  8
0
  6
CENTER
 62
     2
 10
-181.0926
 20
-121.0
 11
-190.3404
 21
-121.0
  0
LINE
  8
0
  6
CONTINUOUS
 62
     7
 10
-183.1148
 20
-119.5266
 11
-184.3976
 21
-120.8094
  0
LINE
  8
0
  6
CONTINUOUS
 62
     7
 10
-183.9634
 20
-118.6781
 11
-185.2462
 21
-119.9609
  0
LINE
  8
0
  6
CONTINUOUS
 62
     7
 10
-201.1148
 20
-128.5266
 11
-202.3976
 21
-129.8094
  0
LINE
  8
0
  6
CONTINUOUS
 62
     7
 10
-201.9633
 20
-127.6781
 11
-203.2461
 21
-128.9609
  0
LINE
  8
0
  6
CONTINUOUS
 62
     7
 10
-186.4759
 20
-121.1906
 11
-187.7588
 21
-122.4734
  0
LINE
  8
0
  6
CONTINUOUS
 62
     7
 10
-185.6274
 20
-122.0392
 11
-186.9102
 21
-123.322
  0
LINE
  8
0
  6
CONTINUOUS
 62
     7
 10
-204.4759
 20
-130.1906
 11
-205.7587
 21
-131.4734
  0
LINE
  8
0
  6
CONTINUOUS
 62
     7
 10
-203.6274
 20
-131.0392
 11
-204.9102
 21
-132.322
  0
LINE
  8
0
  6
CENTER
 62
     2
 10
-194.4368
 20
-116.5
 11
-194.4368
 21
-134.5
  0
LINE
  8
0
  6
CENTER
 62
     2
 10
-148.1747
 20
-125.5
 11
-208.4368
 21
-125.5
  0
LINE
  8
0
  6
CONTINUOUS
 62
     7
 10
-192.4368
 20
-119.0
 11
-192.4368
 21
-132.0
  0
LINE
  8
0
  6
CONTINUOUS
 62
     7
 10
-196.4368
 20
-119.0
 11
-196.4368
 21
-132.0
  0
LINE
  8
0
  6
CONTINUOUS
 62
     7
 10
-192.4368
 20
-132.0
 11
-196.4368
 21
-132.0
  0
LINE
  8
0
  6
CONTINUOUS
 62
     7
 10
-192.4368
 20
-119.0
 11
-196.4368
 21
-119.0
  0
LINE
  8
0
  6
CONTINUOUS
 62
     7
 10
-193.33
 20
-119.7121
 11
-193.33
 21
-122.0537
  0
LINE
  8
0
  6
CONTINUOUS
 62
     7
 10
-195.4066
 20
-119.7121
 11
-195.4066
 21
-121.7003
  0
LINE
  8
0
  6
CONTINUOUS
 62
     7
 10
-195.9368
 20
-119.7121
 11
-195.9368
 21
-122.4072
  0
LINE
  8
0
  6
CONTINUOUS
 62
     7
 10
-193.8602
 20
-119.7121
 11
-193.8602
 21
-121.7003
  0
LINE
  8
0
  6
CONTINUOUS
 62
     7
 10
-193.33
 20
-119.7121
 11
-193.8602
 21
-119.7121
  0
LINE
  8
0
  6
CONTINUOUS
 62
     7
 10
-193.6834
 20
-122.4072
 11
-195.9368
 21
-122.4072
  0
LINE
  8
0
  6
CONTINUOUS
 62
     7
 10
-193.8602
 20
-121.7003
 11
-195.4066
 21
-121.7003
  0
LINE
  8
0
  6
CONTINUOUS
 62
     7
 10
-193.33
 20
-122.8049
 11
-193.8602
 21
-122.8049
  0
LINE
  8
0
  6
CONTINUOUS
 62
     7
 10
-193.8602
 20
-125.3233
 11
-195.5833
 21
-125.3233
  0
LINE
  8
0
  6
CONTINUOUS
 62
     7
 10
-193.8602
 20
-124.6163
 11
-195.4066
 21
-124.6163
  0
LINE
  8
0
  6
CONTINUOUS
 62
     7
 10
-195.4066
 20
-119.7121
 11
-195.9368
 21
-119.7121
  0
LINE
  8
0
  6
CONTINUOUS
 62
     7
 10
-193.33
 20
-122.8049
 11
-193.33
 21
-123.5033
  0
LINE
  8
0
  6
CONTINUOUS
 62
     7
 10
-195.9368
 20
-122.8049
 11
-195.9368
 21
-123.3538
  0
LINE
  8
0
  6
CONTINUOUS
 62
     7
 10
-195.9368
 20
-122.8049
 11
-193.8602
 21
-123.3613
  0
LINE
  8
0
  6
CONTINUOUS
 62
     7
 10
-193.8602
 20
-122.8049
 11
-193.8602
 21
-123.3613
  0
LINE
  8
0
  6
CONTINUOUS
 62
     7
 10
-195.9368
 20
-123.3539
 11
-193.8603
 21
-123.9103
  0
LINE
  8
0
  6
CONTINUOUS
 62
     7
 10
-195.4066
 20
-124.0862
 11
-195.4066
 21
-124.6163
  0
LINE
  8
0
  6
CONTINUOUS
 62
     7
 10
-195.4066
 20
-124.0862
 11
-195.9368
 21
-124.2282
  0
LINE
  8
0
  6
CONTINUOUS
 62
     7
 10
-195.9368
 20
-124.2282
 11
-195.9368
 21
-124.9698
  0
LINE
  8
0
  6
CONTINUOUS
 62
     7
 10
-193.8602
 20
-123.9102
 11
-193.8602
 21
-124.6163
  0
LINE
  8
0
  6
CONTINUOUS
 62
     7
 10
-193.33
 20
-124.0522
 11
-193.33
 21
-124.7931
  0
LINE
  8
0
  6
CONTINUOUS
 62
     7
 10
-193.33
 20
-123.5035
 11
-192.9368
 21
-123.6089
  0
LINE
  8
0
  6
CONTINUOUS
 62
     7
 10
-193.3299
 20
-124.0522
 11
-192.9367
 21
-124.1576
  0
LINE
  8
0
  6
CONTINUOUS
 62
     7
 10
-193.33
 20
-125.7651
 11
-193.33
 21
-126.6046
  0
LINE
  8
0
  6
CONTINUOUS
 62
     7
 10
-193.8602
 20
-125.7651
 11
-193.8602
 21
-127.8268
  0
LINE
  8
0
  6
CONTINUOUS
 62
     7
 10
-195.9368
 20
-126.6046
 11
-195.9368
 21
-127.3115
  0
LINE
  8
0
  6
CONTINUOUS
 62
     7
 10
-193.33
 20
-125.7651
 11
-193.8602
 21
-125.7651
  0
LINE
  8
0
  6
CONTINUOUS
 62
     7
 10
-194.8216
 20
-128.3719
 11
-195.4066
 21
-128.3719
  0
LINE
  8
0
  6
CONTINUOUS
 62
     7
 10
-195.4066
 20
-125.7651
 11
-195.0152
 21
-126.6046
  0
LINE
  8
0
  6
CONTINUOUS
 62
     7
 10
-194.8216
 20
-125.7651
 11
-193.8602
 21
-127.8268
  0
LINE
  8
0
  6
CONTINUOUS
 62
     7
 10
-194.8216
 20
-125.7651
 11
-195.4066
 21
-125.7651
  0
LINE
  8
0
  6
CONTINUOUS
 62
     7
 10
-194.9121
 20
-127.3115
 11
-195.4066
 21
-128.3719
  0
LINE
  8
0
  6
CONTINUOUS
 62
     7
 10
-194.5063
 20
-127.6958
 11
-194.8216
 21
-128.3719
  0
LINE
  8
0
  6
CONTINUOUS
 62
     7
 10
-193.6834
 20
-128.3719
 11
-193.9659
 21
-128.3719
  0
LINE
  8
0
  6
CONTINUOUS
 62
     7
 10
-192.9368
 20
-126.6046
 11
-193.33
 21
-126.6046
  0
LINE
  8
0
  6
CONTINUOUS
 62
     7
 10
-192.9368
 20
-127.3115
 11
-193.33
 21
-127.3115
  0
LINE
  8
0
  6
CONTINUOUS
 62
     7
 10
-193.33
 20
-127.3115
 11
-193.33
 21
-128.0184
  0
LINE
  8
0
  6
CONTINUOUS
 62
     7
 10
-195.0151
 20
-126.6046
 11
-195.9368
 21
-126.6046
  0
LINE
  8
0
  6
CONTINUOUS
 62
     7
 10
-194.9121
 20
-127.3115
 11
-195.9368
 21
-127.3115
  0
LINE
  8
0
  6
CONTINUOUS
 62
     7
 10
-194.5063
 20
-127.6958
 11
-194.2862
 21
-128.1678
  0
LINE
  8
0
  6
CONTINUOUS
 62
     7
 10
-193.0958
 20
-130.7578
 11
-193.0958
 21
-131.2879
  0
LINE
  8
0
  6
CONTINUOUS
 62
     7
 10
-194.191
 20
-128.5928
 11
-194.7616
 21
-128.5928
  0
LINE
  8
0
  6
CONTINUOUS
 62
     7
 10
-193.0958
 20
-131.2879
 11
-193.33
 21
-131.2879
  0
LINE
  8
0
  6
CONTINUOUS
 62
     7
 10
-194.1817
 20
-130.0508
 11
-195.9368
 21
-130.0508
  0
LINE
  8
0
  6
CONTINUOUS
 62
     7
 10
-194.7617
 20
-128.5928
 11
-194.1818
 21
-130.0509
  0
LINE
  8
0
  6
CONTINUOUS
 62
     7
 10
-195.9368
 20
-130.0508
 11
-195.9368
 21
-130.7578
  0
LINE
  8
0
  6
CONTINUOUS
 62
     7
 10
-193.9006
 20
-130.7578
 11
-195.9368
 21
-130.7578
  0
LINE
  8
0
  6
CONTINUOUS
 62
     7
 10
-193.9006
 20
-130.7578
 11
-193.8227
 21
-130.9538
  0
LINE
  8
0
  6
CONTINUOUS
 62
     7
 10
-192.9368
 20
-123.6087
 11
-192.9368
 21
-124.1576
  0
LINE
  8
0
  6
CONTINUOUS
 62
     7
 10
-192.9368
 20
-125.0361
 11
-192.9368
 21
-125.2621
  0
LINE
  8
0
  6
CONTINUOUS
 62
     7
 10
-192.9368
 20
-126.6046
 11
-192.9368
 21
-127.3115
  0
LINE
  8
0
  6
CONTINUOUS
 62
     7
 10
-193.2902
 20
-125.0361
 11
-193.2902
 21
-125.2621
  0
LINE
  8
0
  6
CONTINUOUS
 62
     7
 10
-192.9368
 20
-125.0361
 11
-193.2902
 21
-125.0361
  0
LINE
  8
0
  6
CONTINUOUS
 62
     7
 10
-192.9368
 20
-125.2621
 11
-193.2902
 21
-125.2621
  0
LINE
  8
0
  6
CONTINUOUS
 62
     7
 10
-192.9368
 20
-125.4198
 11
-193.2902
 21
-125.4198
  0
LINE
  8
0
  6
CONTINUOUS
 62
     7
 10
-192.9368
 20
-125.6458
 11
-193.2902
 21
-125.6458
  0
LINE
  8
0
  6
CONTINUOUS
 62
     7
 10
-192.9368
 20
-125.4198
 11
-192.9368
 21
-125.6458
  0
LINE
  8
0
  6
CONTINUOUS
 62
     7
 10
-193.2902
 20
-125.4198
 11
-193.2902
 21
-125.6458
  0
LINE
  8
0
  6
CONTINUOUS
 62
     7
 10
-205.9368
 20
-133.0
 11
-175.4368
 21
-133.0
  0
LINE
  8
0
  6
CONTINUOUS
 62
     7
 10
-205.9368
 20
-118.0
 11
-175.4368
 21
-118.0
  0
LINE
  8
0
  6
CONTINUOUS
 62
     7
 10
-206.4368
 20
-118.5
 11
-206.4368
 21
-132.5
  0
LINE
  8
0
  6
CONTINUOUS
 62
     7
 10
-182.4368
 20
-118.0
 11
-182.4368
 21
-122.5
  0
LINE
  8
0
  6
CONTINUOUS
 62
     7
 10
-182.4368
 20
-128.5
 11
-182.4368
 21
-133.0
  0
LINE
  8
0
  6
CONTINUOUS
 62
     7
 10
-193.0958
 20
-130.7578
 11
-193.2101
 21
-130.7578
  0
LINE
  8
0
  6
CONTINUOUS
 62
     7
 10
-194.1911
 20
-128.5928
 11
-193.3744
 21
-130.6464
  0
LINE
  8
0
  6
CONTINUOUS
 62
     7
 10
-182.4368
 20
-122.5
 11
-182.4368
 21
-128.5
  0
LINE
  8
0
  6
CONTINUOUS
 62
     7
 10
-179.4368
 20
-118.0
 11
-179.4368
 21
-133.0
  0
LINE
  8
0
  6
CONTINUOUS
 62
     7
 10
-175.4368
 20
-118.0
 11
-175.4368
 21
-118.1
  0
LINE
  8
0
  6
CONTINUOUS
 62
     7
 10
-174.9368
 20
-132.9
 11
-152.9368
 21
-132.9
  0
LINE
  8
0
  6
CONTINUOUS
 62
     7
 10
-174.9368
 20
-118.1
 11
-152.9368
 21
-118.1
  0
LINE
  8
0
  6
CONTINUOUS
 62
     7
 10
-152.4368
 20
-118.6
 11
-152.4368
 21
-132.4
  0
LINE
  8
0
  6
CONTINUOUS
 62
     7
 10
-151.265
 20
-128.3
 11
-151.9368
 21
-128.3
  0
LINE
  8
0
  6
CONTINUOUS
 62
     7
 10
-151.265
 20
-122.7
 11
-151.9368
 21
-122.7
  0
LINE
  8
0
  6
CONTINUOUS
 62
     7
 10
-151.9368
 20
-128.75
 11
-151.9368
 21
-122.25
  0
LINE
  8
0
  6
CONTINUOUS
 62
     7
 10
-151.9368
 20
-128.75
 11
-152.4368
 21
-128.75
  0
LINE
  8
0
  6
CONTINUOUS
 62
     7
 10
-151.9368
 20
-122.25
 11
-152.4368
 21
-122.25
  0
LINE
  8
0
  6
CENTER
 62
     2
 10
-159.8368
 20
-115.1
 11
-159.8368
 21
-135.9
  0
LINE
  8
0
  6
CONTINUOUS
 62
     7
 10
-175.4368
 20
-132.9
 11
-175.4368
 21
-133.0
  0
LINE
  8
0
  6
CONTINUOUS
 62
     7
 10
-175.4368
 20
-132.9
 11
-175.4368
 21
-118.1
  0
LINE
  8
0
  6
CONTINUOUS
 62
     7
 10
-174.9368
 20
-132.9
 11
-174.9368
 21
-118.1
  0
LINE
  8
0
  6
CONTINUOUS
 62
     7
 10
-175.4368
 20
-132.9
 11
-174.9368
 21
-132.9
  0
LINE
  8
0
  6
CONTINUOUS
 62
     7
 10
-175.4368
 20
-118.1
 11
-174.9368
 21
-118.1
  0
LINE
  8
0
  6
CONTINUOUS
 62
     7
 10
170.4368
 20
5.0
 11
185.4368
 21
5.0
  0
LINE
  8
0
  6
CENTER
 62
     2
 10
177.9368
 20
68.33334
 11
177.9368
 21
-27.65138
  0
LINE
  8
0
  6
CENTER
 62
     2
 10
175.5518
 20
18.5
 11
180.3984
 21
18.5
  0
LINE
  8
0
  6
CONTINUOUS
 62
     7
 10
170.9368
 20
-24.5
 11
184.9368
 21
-24.5
  0
LINE
  8
0
  6
CONTINUOUS
 62
     7
 10
170.6868
 20
-19.5
 11
176.1868
 21
-19.5
  0
LINE
  8
0
  6
CENTER
 62
     2
 10
173.4368
 20
-18.14999
 11
173.4368
 21
-26.49852
  0
LINE
  8
0
  6
CONTINUOUS
 62
     7
 10
176.6367
 20
-20.0
 11
176.6367
 21
-24.0
  0
LINE
  8
0
  6
CENTER
 62
     2
 10
169.866
 20
0.0
 11
175.9748
 21
0.0
  0
LINE
  8
0
  6
CENTER
 62
     2
 10
180.1682
 20
-12.0
 11
186.0182
 21
-12.0
  0
LINE
  8
0
  6
CENTER
 62
     2
 10
183.4368
 20
-8.47301
 11
183.4368
 21
-15.41017
  0
LINE
  8
0
  6
CENTER
 62
     2
 10
172.4368
 20
3.43938
 11
172.4368
 21
-3.34248
  0
LINE
  8
0
  6
CONTINUOUS
 62
     7
 10
170.4368
 20
-17.0
 11
185.4368
 21
-17.0
  0
LINE
  8
0
  6
CONTINUOUS
 62
     7
 10
170.4368
 20
48.19998
 11
170.4368
 21
-24.0
  0
LINE
  8
0
  6
CONTINUOUS
 62
     7
 10
185.4368
 20
48.19998
 11
185.4368
 21
-24.0
  0
LINE
  8
0
  6
CONTINUOUS
 62
     7
 10
170.4368
 20
22.0
 11
185.4368
 21
22.0
  0
LINE
  8
0
  6
CONTINUOUS
 62
     7
 10
170.6867
 20
-20.29968
 11
170.6867
 21
-19.5
  0
LINE
  8
0
  6
DASHED
 62
     7
 10
171.9368
 20
-21.2697
 11
172.6121
 21
-20.10001
  0
LINE
  8
0
  6
DASHED
 62
     7
 10
172.6121
 20
-20.10001
 11
173.4368
 21
-19.66153
  0
LINE
  8
0
  6
DASHED
 62
     7
 10
174.2614
 20
-20.1
 11
173.4367
 21
-19.6615
  0
LINE
  8
0
  6
DASHED
 62
     7
 10
174.9368
 20
-21.26973
 11
174.2615
 21
-20.10003
  0
LINE
  8
0
  6
CONTINUOUS
 62
     7
 10
176.1867
 20
-20.29967
 11
176.1867
 21
-19.5
  0
LINE
  8
0
  6
CONTINUOUS
 62
     7
 10
170.4368
 20
47.19998
 11
170.5368
 21
47.19998
  0
LINE
  8
0
  6
CONTINUOUS
 62
     7
 10
170.4368
 20
48.19998
 11
170.5368
 21
48.19998
  0
LINE
  8
0
  6
CONTINUOUS
 62
     7
 10
185.4368
 20
48.2
 11
185.3368
 21
48.39999
  0
LINE
  8
0
  6
CONTINUOUS
 62
     7
 10
170.4368
 20
48.2
 11
170.5368
 21
48.39999
  0
LINE
  8
0
  6
CONTINUOUS
 62
     7
 10
171.0368
 20
46.39999
 11
184.8368
 21
46.39999
  0
LINE
  8
0
  6
CONTINUOUS
 62
     7
 10
171.0368
 20
31.60001
 11
184.8368
 21
31.60001
  0
LINE
  8
0
  6
CENTER
 62
     2
 10
167.4368
 20
39.0
 11
188.4368
 21
39.0
  0
LINE
  8
0
  6
CONTINUOUS
 62
     7
 10
176.6639
 20
38.15154
 11
177.0882
 21
38.5758
  0
LINE
  8
0
  6
CONTINUOUS
 62
     7
 10
177.0882
 20
37.72725
 11
177.5125
 21
38.15152
  0
LINE
  8
0
  6
CONTINUOUS
 62
     7
 10
176.664
 20
38.15141
 11
177.0883
 21
37.72717
  0
LINE
  8
0
  6
CONTINUOUS
 62
     7
 10
178.7853
 20
40.27279
 11
179.2096
 21
39.8485
  0
LINE
  8
0
  6
CONTINUOUS
 62
     7
 10
175.7562
 20
40.75637
 11
177.0883
 21
39.42424
  0
LINE
  8
0
  6
CONTINUOUS
 62
     7
 10
176.1804
 20
41.18066
 11
177.5125
 21
39.84853
  0
LINE
  8
0
  6
CONTINUOUS
 62
     7
 10
178.361
 20
39.84859
 11
178.7852
 21
40.27286
  0
LINE
  8
0
  6
CONTINUOUS
 62
     7
 10
178.7853
 20
39.42432
 11
179.2095
 21
39.84857
  0
LINE
  8
0
  6
CONTINUOUS
 62
     7
 10
178.3611
 20
38.15145
 11
179.6932
 21
36.81933
  0
LINE
  8
0
  6
CONTINUOUS
 62
     7
 10
178.7853
 20
38.57574
 11
180.1174
 21
37.24362
  0
LINE
  8
0
  6
CONTINUOUS
 62
     7
 10
170.5368
 20
58.69998
 11
185.3368
 21
58.69998
  0
LINE
  8
0
  6
CONTINUOUS
 62
     7
 10
172.1367
 20
66.09998
 11
183.7368
 21
66.09998
  0
LINE
  8
0
  6
CONTINUOUS
 62
     7
 10
170.5368
 20
59.69998
 11
185.3368
 21
59.69998
  0
LINE
  8
0
  6
CONTINUOUS
 62
     7
 10
185.3368
 20
59.69998
 11
185.3368
 21
58.69998
  0
LINE
  8
0
  6
CONTINUOUS
 62
     7
 10
170.5368
 20
59.69998
 11
170.5368
 21
58.69998
  0
LINE
  8
0
  6
CONTINUOUS
 62
     7
 10
171.4368
 20
65.69586
 11
171.4368
 21
59.69998
  0
LINE
  8
0
  6
CONTINUOUS
 62
     7
 10
184.4368
 20
65.69586
 11
184.4368
 21
59.69998
  0
LINE
  8
0
  6
CONTINUOUS
 62
     7
 10
183.7368
 20
66.10001
 11
184.4368
 21
65.69586
  0
LINE
  8
0
  6
CONTINUOUS
 62
     7
 10
172.1367
 20
66.10012
 11
171.4367
 21
65.69598
  0
LINE
  8
0
  6
CONTINUOUS
 62
     7
 10
177.7498
 20
65.17621
 11
178.1237
 21
65.17621
  0
LINE
  8
0
  6
CONTINUOUS
 62
     7
 10
185.3368
 20
48.19998
 11
185.4368
 21
48.19998
  0
LINE
  8
0
  6
CONTINUOUS
 62
     7
 10
185.3368
 20
47.19998
 11
185.4368
 21
47.19998
  0
LINE
  8
0
  6
CONTINUOUS
 62
     7
 10
178.1237
 20
65.17621
 11
178.1237
 21
59.69998
  0
LINE
  8
0
  6
CONTINUOUS
 62
     7
 10
177.7498
 20
65.17621
 11
177.7498
 21
59.69998
  0
LINE
  8
0
  6
CONTINUOUS
 62
     7
 10
170.5368
 20
56.69998
 11
185.3368
 21
56.69998
  0
LINE
  8
0
  6
CONTINUOUS
 62
     7
 10
170.5368
 20
56.69998
 11
170.5368
 21
32.10001
  0
LINE
  8
0
  6
CONTINUOUS
 62
     7
 10
185.3368
 20
56.69998
 11
185.3368
 21
32.10001
  0
LINE
  8
0
  6
CONTINUOUS
 62
     7
 10
183.9368
 20
58.69998
 11
183.9368
 21
56.69998
  0
LINE
  8
0
  6
CONTINUOUS
 62
     7
 10
171.9368
 20
58.69998
 11
171.9368
 21
56.69998
  0
LINE
  8
0
  6
CONTINUOUS
 62
     7
 10
183.2603
 20
58.69998
 11
183.2603
 21
56.69998
  0
LINE
  8
0
  6
CONTINUOUS
 62
     7
 10
172.6133
 20
58.69998
 11
172.6133
 21
56.69998
  0
LINE
  8
0
  6
CENTER
 62
     2
 10
167.9884
 20
170.1
 11
187.9245
 21
170.1
  0
LINE
  8
0
  6
CONTINUOUS
 62
     7
 10
185.4368
 20
158.1
 11
170.4368
 21
158.1
  0
LINE
  8
0
  6
CONTINUOUS
 62
     7
 10
176.4368
 20
161.1
 11
176.4368
 21
158.1
  0
LINE
  8
0
  6
CONTINUOUS
 62
     7
 10
179.4368
 20
179.1
 11
179.4368
 21
182.1
  0
LINE
  8
0
  6
CONTINUOUS
 62
     7
 10
182.4368
 20
176.1
 11
185.4368
 21
176.1
  0
LINE
  8
0
  6
CONTINUOUS
 62
     7
 10
173.4368
 20
164.1
 11
170.4368
 21
164.1
  0
LINE
  8
0
  6
CONTINUOUS
 62
     7
 10
179.4368
 20
181.1
 11
171.4368
 21
181.1
  0
LINE
  8
0
  6
CONTINUOUS
 62
     7
 10
184.4368
 20
159.1
 11
176.4368
 21
159.1
  0
LINE
  8
0
  6
CONTINUOUS
 62
     7
 10
184.4368
 20
176.1
 11
184.4368
 21
159.1
  0
LINE
  8
0
  6
CONTINUOUS
 62
     7
 10
171.4368
 20
181.1
 11
171.4368
 21
164.1
  0
LINE
  8
0
  6
CONTINUOUS
 62
     7
 10
171.2068
 20
160.8
 11
170.9045
 21
160.8
  0
LINE
  8
0
  6
CONTINUOUS
 62
     7
 10
171.2068
 20
161.4
 11
170.9045
 21
161.4
  0
LINE
  8
0
  6
CONTINUOUS
 62
     7
 10
170.9287
 20
161.5608
 11
171.2345
 21
161.5608
  0
LINE
  8
0
  6
CONTINUOUS
 62
     7
 10
184.6667
 20
179.4
 11
184.9691
 21
179.4
  0
LINE
  8
0
  6
CONTINUOUS
 62
     7
 10
184.6667
 20
178.8
 11
184.9691
 21
178.8
  0
LINE
  8
0
  6
CONTINUOUS
 62
     7
 10
184.9448
 20
178.6392
 11
184.6391
 21
178.6392
  0
LINE
  8
0
  6
CONTINUOUS
 62
     7
 10
172.7014
 20
162.2031
 11
173.0691
 21
161.8354
  0
LINE
  8
0
  6
CONTINUOUS
 62
     7
 10
172.3337
 20
161.8354
 11
172.7014
 21
161.4677
  0
LINE
  8
0
  6
CONTINUOUS
 62
     7
 10
172.7014
 20
162.2031
 11
172.3337
 21
161.8354
  0
LINE
  8
0
  6
CONTINUOUS
 62
     7
 10
174.5399
 20
160.3647
 11
174.1722
 21
159.997
  0
LINE
  8
0
  6
CONTINUOUS
 62
     7
 10
174.8333
 20
162.8642
 11
173.8045
 21
161.8354
  0
LINE
  8
0
  6
CONTINUOUS
 62
     7
 10
175.201
 20
162.4965
 11
174.1722
 21
161.4677
  0
LINE
  8
0
  6
CONTINUOUS
 62
     7
 10
174.1722
 20
160.7323
 11
174.5398
 21
160.3647
  0
LINE
  8
0
  6
CONTINUOUS
 62
     7
 10
173.8045
 20
160.3646
 11
174.1721
 21
159.9969
  0
LINE
  8
0
  6
CONTINUOUS
 62
     7
 10
172.7014
 20
160.7323
 11
171.6726
 21
159.7035
  0
LINE
  8
0
  6
CONTINUOUS
 62
     7
 10
173.0691
 20
160.3646
 11
172.0403
 21
159.3358
  0
LINE
  8
0
  6
CONTINUOUS
 62
     7
 10
181.7014
 20
180.2031
 11
182.0691
 21
179.8354
  0
LINE
  8
0
  6
CONTINUOUS
 62
     7
 10
181.3337
 20
179.8354
 11
181.7014
 21
179.4678
  0
LINE
  8
0
  6
CONTINUOUS
 62
     7
 10
181.7014
 20
180.2031
 11
181.3337
 21
179.8354
  0
LINE
  8
0
  6
CONTINUOUS
 62
     7
 10
183.5399
 20
178.3646
 11
183.1722
 21
177.9969
  0
LINE
  8
0
  6
CONTINUOUS
 62
     7
 10
183.8333
 20
180.8642
 11
182.8045
 21
179.8354
  0
LINE
  8
0
  6
CONTINUOUS
 62
     7
 10
184.201
 20
180.4965
 11
183.1722
 21
179.4677
  0
LINE
  8
0
  6
CONTINUOUS
 62
     7
 10
183.1722
 20
178.7323
 11
183.5398
 21
178.3646
  0
LINE
  8
0
  6
CONTINUOUS
 62
     7
 10
182.8044
 20
178.3647
 11
183.1721
 21
177.997
  0
LINE
  8
0
  6
CONTINUOUS
 62
     7
 10
181.7014
 20
178.7323
 11
180.6726
 21
177.7035
  0
LINE
  8
0
  6
CONTINUOUS
 62
     7
 10
182.0691
 20
178.3646
 11
181.0403
 21
177.3358
  0
LINE
  8
0
  6
CENTER
 62
     2
 10
177.4368
 20
161.1
 11
169.4368
 21
161.1
  0
LINE
  8
0
  6
CENTER
 62
     2
 10
186.4368
 20
179.1
 11
178.4368
 21
179.1
  0
LINE
  8
0
  6
CENTER
 62
     2
 10
182.4368
 20
183.1
 11
182.4368
 21
175.1
  0
LINE
  8
0
  6
CENTER
 62
     2
 10
173.4368
 20
165.1
 11
173.4368
 21
157.1
  0
LINE
  8
0
  6
CONTINUOUS
 62
     7
 10
185.4368
 20
181.6
 11
185.4368
 21
151.1
  0
LINE
  8
0
  6
CONTINUOUS
 62
     7
 10
184.9368
 20
182.1
 11
170.9368
 21
182.1
  0
LINE
  8
0
  6
CONTINUOUS
 62
     7
 10
170.4368
 20
181.6
 11
170.4368
 21
151.1
  0
LINE
  8
0
  6
CONTINUOUS
 62
     7
 10
185.4368
 20
155.1
 11
170.4368
 21
155.1
  0
LINE
  8
0
  6
CONTINUOUS
 62
     7
 10
185.4368
 20
151.1
 11
170.4368
 21
151.1
  0
LINE
  8
0
  6
CENTER
 62
     2
 10
188.3368
 20
135.5
 11
167.5368
 21
135.5
  0
LINE
  8
0
  6
CONTINUOUS
 62
     7
 10
184.4368
 20
139.037
 11
184.4368
 21
131.9631
  0
LINE
  8
0
  6
CONTINUOUS
 62
     7
 10
171.4368
 20
139.037
 11
171.4368
 21
131.9631
  0
LINE
  8
0
  6
CONTINUOUS
 62
     7
 10
184.2498
 20
131.6394
 11
178.1236
 21
128.1024
  0
LINE
  8
0
  6
CONTINUOUS
 62
     7
 10
177.7498
 20
142.8978
 11
171.6237
 21
139.3608
  0
LINE
  8
0
  6
CONTINUOUS
 62
     7
 10
177.7499
 20
128.1024
 11
171.6237
 21
131.6393
  0
LINE
  8
0
  6
CONTINUOUS
 62
     7
 10
184.2498
 20
139.3608
 11
178.1237
 21
142.8977
  0
LINE
  8
0
  6
CONTINUOUS
 62
     7
 10
184.8368
 20
128.1
 11
171.0368
 21
128.1
  0
LINE
  8
0
  6
CONTINUOUS
 62
     7
 10
175.1368
 20
126.9282
 11
175.1368
 21
127.6
  0
LINE
  8
0
  6
CONTINUOUS
 62
     7
 10
180.7368
 20
126.9282
 11
180.7368
 21
127.6
  0
LINE
  8
0
  6
CONTINUOUS
 62
     7
 10
181.1868
 20
127.6
 11
181.1868
 21
128.1
  0
LINE
  8
0
  6
CONTINUOUS
 62
     7
 10
174.6868
 20
127.6
 11
181.1868
 21
127.6
  0
LINE
  8
0
  6
CONTINUOUS
 62
     7
 10
174.6868
 20
127.6
 11
174.6868
 21
128.1
  0
LINE
  8
0
  6
CONTINUOUS
 62
     7
 10
170.5368
 20
151.1
 11
170.5368
 21
128.6
  0
LINE
  8
0
  6
CONTINUOUS
 62
     7
 10
185.3368
 20
151.1
 11
185.3368
 21
128.6
  0
LINE
  8
0
  6
CONTINUOUS
 62
     7
 10
185.3368
 20
150.6
 11
170.5368
 21
150.6
  0
LINE
  8
0
  6
CENTER
 62
     2
 10
177.9368
 20
183.8183
 11
177.9368
 21
123.1487
  0
LINE
  8
0
  6
CONTINUOUS
 62
     7
 10
22.4368
 20
5.0
 11
46.4368
 21
5.0
  0
LINE
  8
0
  6
CENTER
 62
     2
 10
34.4368
 20
53.19998
 11
34.4368
 21
-27.96396
  0
LINE
  8
0
  6
CONTINUOUS
 62
     7
 10
22.9368
 20
-24.5
 11
45.9368
 21
-24.5
  0
LINE
  8
0
  6
CONTINUOUS
 62
     7
 10
40.73679
 20
-19.5
 11
46.1868
 21
-19.5
  0
LINE
  8
0
  6
CENTER
 62
     2
 10
43.4368
 20
-17.7
 11
43.4368
 21
-27.14999
  0
LINE
  8
0
  6
CONTINUOUS
 62
     7
 10
40.23679
 20
-20.0
 11
40.23679
 21
-24.0
  0
LINE
  8
0
  6
CONTINUOUS
 62
     7
 10
22.4368
 20
-17.0
 11
46.4368
 21
-17.0
  0
LINE
  8
0
  6
CENTER
 62
     2
 10
42.02084
 20
0.0
 11
47.70541
 21
0.0
  0
LINE
  8
0
  6
CONTINUOUS
 62
     7
 10
43.4368
 20
1.81384
 11
46.4368
 21
1.81384
  0
LINE
  8
0
  6
CONTINUOUS
 62
     7
 10
43.4368
 20
-1.81383
 11
46.4368
 21
-1.81383
  0
LINE
  8
0
  6
CONTINUOUS
 62
     7
 10
43.4368
 20
1.81383
 11
43.4368
 21
-1.81384
  0
LINE
  8
0
  6
CONTINUOUS
 62
     7
 10
46.4368
 20
22.0
 11
46.4368
 21
-24.0
  0
LINE
  8
0
  6
CONTINUOUS
 62
     7
 10
22.4368
 20
22.0
 11
53.4368
 21
22.0
  0
LINE
  8
0
  6
CONTINUOUS
 62
     7
 10
22.4368
 20
48.19998
 11
22.4368
 21
-24.0
  0
LINE
  8
0
  6
CONTINUOUS
 62
     7
 10
40.6868
 20
-20.29968
 11
40.6868
 21
-19.5
  0
LINE
  8
0
  6
DASHED
 62
     7
 10
41.93681
 20
-21.26968
 11
42.61214
 21
-20.09999
  0
LINE
  8
0
  6
DASHED
 62
     7
 10
42.6122
 20
-20.10006
 11
43.43689
 21
-19.66156
  0
LINE
  8
0
  6
DASHED
 62
     7
 10
44.26147
 20
-20.1
 11
43.43678
 21
-19.6615
  0
LINE
  8
0
  6
DASHED
 62
     7
 10
44.93676
 20
-21.26973
 11
44.26144
 21
-20.10004
  0
LINE
  8
0
  6
CONTINUOUS
 62
     7
 10
46.1868
 20
-20.29967
 11
46.1868
 21
-19.5
  0
LINE
  8
0
  6
CONTINUOUS
 62
     7
 10
22.4368
 20
47.19998
 11
49.4368
 21
47.19998
  0
LINE
  8
0
  6
CONTINUOUS
 62
     7
 10
46.4368
 20
48.19995
 11
46.4368
 21
47.19998
  0
LINE
  8
0
  6
CONTINUOUS
 62
     7
 10
23.4368
 20
50.19998
 11
41.61105
 21
50.19998
  0
LINE
  8
0
  6
CONTINUOUS
 62
     7
 10
22.4368
 20
48.19998
 11
46.4368
 21
48.19998
  0
LINE
  8
0
  6
CONTINUOUS
 62
     7
 10
22.43691
 20
48.19995
 11
23.43691
 21
50.19995
  0
LINE
  8
0
  6
CONTINUOUS
 62
     7
 10
46.43682
 20
48.20003
 11
45.43681
 21
50.20004
  0
LINE
  8
0
  6
CONTINUOUS
 62
     7
 10
40.4368
 20
50.19998
 11
40.4368
 21
48.19998
  0
LINE
  8
0
  6
CENTER
 62
     2
 10
43.4368
 20
53.19998
 11
43.4368
 21
44.19998
  0
LINE
  8
0
  6
CONTINUOUS
 62
     7
 10
45.98679
 20
48.79999
 11
40.88681
 21
48.79999
  0
LINE
  8
0
  6
CONTINUOUS
 62
     7
 10
43.13678
 20
48.20003
 11
42.97601
 21
48.80002
  0
LINE
  8
0
  6
CONTINUOUS
 62
     7
 10
43.73673
 20
48.79998
 11
43.8975
 21
48.19999
  0
LINE
  8
0
  6
CONTINUOUS
 62
     7
 10
45.98679
 20
48.79999
 11
45.98679
 21
48.19998
  0
LINE
  8
0
  6
CONTINUOUS
 62
     7
 10
40.88681
 20
48.79999
 11
40.88681
 21
48.19998
  0
LINE
  8
0
  6
CONTINUOUS
 62
     7
 10
45.6868
 20
49.49374
 11
45.6868
 21
48.79999
  0
LINE
  8
0
  6
CONTINUOUS
 62
     7
 10
41.1868
 20
49.49374
 11
41.1868
 21
48.79999
  0
LINE
  8
0
  6
CONTINUOUS
 62
     7
 10
45.2626
 20
50.19998
 11
45.4368
 21
50.19998
  0
LINE
  8
0
  6
CENTER
 62
     2
 10
25.4368
 20
53.19998
 11
25.4368
 21
44.19998
  0
LINE
  8
0
  6
CONTINUOUS
 62
     7
 10
49.4368
 20
47.19998
 11
49.4368
 21
22.0
  0
LINE
  8
0
  6
CONTINUOUS
 62
     7
 10
49.4368
 20
47.0
 11
53.4368
 21
47.0
  0
LINE
  8
0
  6
CENTER
 62
     2
 10
46.4368
 20
39.0
 11
81.83682
 21
39.0
  0
LINE
  8
0
  6
CONTINUOUS
 62
     7
 10
76.4368
 20
65.17621
 11
76.4368
 21
58.69998
  0
LINE
  8
0
  6
CONTINUOUS
 62
     7
 10
53.4368
 20
31.60001
 11
75.9368
 21
31.60001
  0
LINE
  8
0
  6
CONTINUOUS
 62
     7
 10
53.4368
 20
46.39999
 11
75.9368
 21
46.39999
  0
LINE
  8
0
  6
CONTINUOUS
 62
     7
 10
61.63681
 20
65.17624
 11
61.63681
 21
58.69998
  0
LINE
  8
0
  6
CONTINUOUS
 62
     7
 10
63.23679
 20
66.09998
 11
74.83682
 21
66.09998
  0
LINE
  8
0
  6
CONTINUOUS
 62
     7
 10
77.60861
 20
36.20001
 11
76.9368
 21
36.20001
  0
LINE
  8
0
  6
CONTINUOUS
 62
     7
 10
77.60861
 20
41.80002
 11
76.9368
 21
41.80002
  0
LINE
  8
0
  6
CONTINUOUS
 62
     7
 10
76.9368
 20
35.75
 11
76.9368
 21
42.25
  0
LINE
  8
0
  6
CONTINUOUS
 62
     7
 10
76.9368
 20
35.75
 11
76.4368
 21
35.75
  0
LINE
  8
0
  6
CONTINUOUS
 62
     7
 10
76.9368
 20
42.25
 11
76.4368
 21
42.25
  0
LINE
  8
0
  6
CONTINUOUS
 62
     7
 10
61.63681
 20
58.69998
 11
76.4368
 21
58.69998
  0
LINE
  8
0
  6
CONTINUOUS
 62
     7
 10
61.63681
 20
59.69998
 11
76.4368
 21
59.69998
  0
LINE
  8
0
  6
CONTINUOUS
 62
     7
 10
64.03677
 20
44.0
 11
74.03677
 21
44.0
  0
LINE
  8
0
  6
CONTINUOUS
 62
     7
 10
64.03677
 20
34.0
 11
74.03677
 21
34.0
  0
LINE
  8
0
  6
CONTINUOUS
 62
     7
 10
64.03677
 20
44.0
 11
64.03677
 21
34.0
  0
LINE
  8
0
  6
CONTINUOUS
 62
     7
 10
74.03677
 20
44.0
 11
74.03677
 21
34.0
  0
LINE
  8
0
  6
CONTINUOUS
 62
     7
 10
65.03677
 20
44.0
 11
65.03677
 21
34.0
  0
LINE
  8
0
  6
CONTINUOUS
 62
     7
 10
66.03677
 20
44.0
 11
66.03677
 21
34.0
  0
LINE
  8
0
  6
CONTINUOUS
 62
     7
 10
67.03677
 20
44.0
 11
67.03677
 21
34.0
  0
LINE
  8
0
  6
CONTINUOUS
 62
     7
 10
68.03677
 20
44.0
 11
68.03677
 21
34.0
  0
LINE
  8
0
  6
CONTINUOUS
 62
     7
 10
69.03677
 20
44.0
 11
69.03677
 21
34.0
  0
LINE
  8
0
  6
CONTINUOUS
 62
     7
 10
70.03677
 20
44.0
 11
70.03677
 21
34.0
  0
LINE
  8
0
  6
CONTINUOUS
 62
     7
 10
71.03677
 20
44.0
 11
71.03677
 21
34.0
  0
LINE
  8
0
  6
CONTINUOUS
 62
     7
 10
72.03677
 20
44.0
 11
72.03677
 21
34.0
  0
LINE
  8
0
  6
CONTINUOUS
 62
     7
 10
73.03677
 20
44.0
 11
73.03677
 21
34.0
  0
LINE
  8
0
  6
CONTINUOUS
 62
     7
 10
74.83675
 20
66.09997
 11
76.43677
 21
65.17619
  0
LINE
  8
0
  6
CONTINUOUS
 62
     7
 10
63.23687
 20
66.10005
 11
61.63686
 21
65.17628
  0
LINE
  8
0
  6
CONTINUOUS
 62
     7
 10
65.17612
 20
65.17621
 11
65.17612
 21
59.69998
  0
LINE
  8
0
  6
CONTINUOUS
 62
     7
 10
65.49985
 20
65.17621
 11
65.49985
 21
59.69998
  0
LINE
  8
0
  6
CONTINUOUS
 62
     7
 10
72.57376
 20
65.17621
 11
72.57376
 21
59.69998
  0
LINE
  8
0
  6
CONTINUOUS
 62
     7
 10
72.89749
 20
65.17621
 11
72.89749
 21
59.69998
  0
LINE
  8
0
  6
CONTINUOUS
 62
     7
 10
65.17612
 20
65.17621
 11
65.49985
 21
65.17621
  0
LINE
  8
0
  6
CONTINUOUS
 62
     7
 10
72.57376
 20
65.17621
 11
72.89749
 21
65.17621
  0
LINE
  8
0
  6
CENTER
 62
     2
 10
69.03677
 20
69.09998
 11
69.03677
 21
28.60001
  0
LINE
  8
0
  6
CONTINUOUS
 62
     7
 10
53.4368
 20
47.0
 11
53.4368
 21
22.0
  0
LINE
  8
0
  6
CONTINUOUS
 62
     7
 10
61.63681
 20
56.69998
 11
76.4368
 21
56.69998
  0
LINE
  8
0
  6
CONTINUOUS
 62
     7
 10
61.63681
 20
56.69998
 11
61.63681
 21
46.39999
  0
LINE
  8
0
  6
CONTINUOUS
 62
     7
 10
76.4368
 20
56.69998
 11
76.4368
 21
32.10001
  0
LINE
  8
0
  6
CONTINUOUS
 62
     7
 10
75.03677
 20
58.69998
 11
75.03677
 21
56.69998
  0
LINE
  8
0
  6
CONTINUOUS
 62
     7
 10
63.03677
 20
58.69998
 11
63.03677
 21
56.69998
  0
LINE
  8
0
  6
CONTINUOUS
 62
     7
 10
74.36032
 20
58.69998
 11
74.36032
 21
56.69998
  0
LINE
  8
0
  6
CONTINUOUS
 62
     7
 10
63.71329
 20
58.69998
 11
63.71329
 21
56.69998
  0
LINE
  8
0
  6
CONTINUOUS
 62
     7
 10
53.9368
 20
31.59998
 11
53.9368
 21
46.39999
  0
LINE
  8
0
  6
CONTINUOUS
 62
     7
 10
332.4367
 20
5.0
 11
308.4367
 21
5.0
  0
LINE
  8
0
  6
CENTER
 62
     2
 10
320.4367
 20
53.19998
 11
320.4367
 21
-27.96396
  0
LINE
  8
0
  6
CONTINUOUS
 62
     7
 10
331.9367
 20
-24.5
 11
308.9367
 21
-24.5
  0
LINE
  8
0
  6
CONTINUOUS
 62
     7
 10
326.7367
 20
-19.5
 11
332.1867
 21
-19.5
  0
LINE
  8
0
  6
CENTER
 62
     2
 10
329.4367
 20
-17.7
 11
329.4367
 21
-27.14999
  0
LINE
  8
0
  6
CONTINUOUS
 62
     7
 10
326.2367
 20
-20.0
 11
326.2367
 21
-24.0
  0
LINE
  8
0
  6
CONTINUOUS
 62
     7
 10
332.4367
 20
-17.0
 11
308.4367
 21
-17.0
  0
LINE
  8
0
  6
CONTINUOUS
 62
     7
 10
308.4367
 20
22.0
 11
308.4367
 21
-24.0
  0
LINE
  8
0
  6
CENTER
 62
     2
 10
312.8527
 20
-12.0
 11
307.1681
 21
-12.0
  0
LINE
  8
0
  6
CONTINUOUS
 62
     7
 10
311.4367
 20
-10.18616
 11
308.4367
 21
-10.18616
  0
LINE
  8
0
  6
CONTINUOUS
 62
     7
 10
311.4367
 20
-13.81383
 11
308.4367
 21
-13.81383
  0
LINE
  8
0
  6
CONTINUOUS
 62
     7
 10
311.4367
 20
-10.18616
 11
311.4367
 21
-13.81383
  0
LINE
  8
0
  6
CONTINUOUS
 62
     7
 10
332.4367
 20
48.19998
 11
332.4367
 21
-24.0
  0
LINE
  8
0
  6
CONTINUOUS
 62
     7
 10
332.1867
 20
-20.29967
 11
332.1867
 21
-19.5
  0
LINE
  8
0
  6
DASHED
 62
     7
 10
330.937
 20
-21.26962
 11
330.2616
 21
-20.09993
  0
LINE
  8
0
  6
DASHED
 62
     7
 10
330.2614
 20
-20.09995
 11
329.4368
 21
-19.66149
  0
LINE
  8
0
  6
DASHED
 62
     7
 10
328.612
 20
-20.09997
 11
329.4367
 21
-19.66149
  0
LINE
  8
0
  6
DASHED
 62
     7
 10
327.9369
 20
-21.26975
 11
328.6122
 21
-20.10005
  0
LINE
  8
0
  6
CONTINUOUS
 62
     7
 10
326.6867
 20
-20.29967
 11
326.6867
 21
-19.5
  0
LINE
  8
0
  6
CONTINUOUS
 62
     7
 10
332.4367
 20
22.0
 11
301.4367
 21
22.0
  0
LINE
  8
0
  6
CONTINUOUS
 62
     7
 10
332.4367
 20
47.19998
 11
305.4367
 21
47.19998
  0
LINE
  8
0
  6
CONTINUOUS
 62
     7
 10
308.4367
 20
48.19998
 11
308.4367
 21
47.19998
  0
LINE
  8
0
  6
CONTINUOUS
 62
     7
 10
309.4367
 20
50.19998
 11
327.611
 21
50.19998
  0
LINE
  8
0
  6
CONTINUOUS
 62
     7
 10
332.4367
 20
48.19998
 11
308.4367
 21
48.19998
  0
LINE
  8
0
  6
CONTINUOUS
 62
     7
 10
308.4367
 20
48.19997
 11
309.4367
 21
50.19999
  0
LINE
  8
0
  6
CONTINUOUS
 62
     7
 10
332.4367
 20
48.19999
 11
331.4367
 21
50.19997
  0
LINE
  8
0
  6
CONTINUOUS
 62
     7
 10
326.4367
 20
50.19998
 11
326.4367
 21
48.19998
  0
LINE
  8
0
  6
CENTER
 62
     2
 10
329.4367
 20
53.19998
 11
329.4367
 21
44.19998
  0
LINE
  8
0
  6
CONTINUOUS
 62
     7
 10
331.9867
 20
48.79999
 11
326.8867
 21
48.79999
  0
LINE
  8
0
  6
CONTINUOUS
 62
     7
 10
329.1367
 20
48.2
 11
328.976
 21
48.79998
  0
LINE
  8
0
  6
CONTINUOUS
 62
     7
 10
329.7368
 20
48.8
 11
329.8976
 21
48.19998
  0
LINE
  8
0
  6
CONTINUOUS
 62
     7
 10
331.9867
 20
48.79999
 11
331.9867
 21
48.19998
  0
LINE
  8
0
  6
CONTINUOUS
 62
     7
 10
326.8867
 20
48.79999
 11
326.8867
 21
48.19998
  0
LINE
  8
0
  6
CONTINUOUS
 62
     7
 10
331.6867
 20
49.49374
 11
331.6867
 21
48.79999
  0
LINE
  8
0
  6
CONTINUOUS
 62
     7
 10
327.1867
 20
49.49374
 11
327.1867
 21
48.79999
  0
LINE
  8
0
  6
CONTINUOUS
 62
     7
 10
331.2625
 20
50.19998
 11
331.4367
 21
50.19998
  0
LINE
  8
0
  6
CENTER
 62
     2
 10
311.4367
 20
53.19998
 11
311.4367
 21
44.19998
  0
LINE
  8
0
  6
CONTINUOUS
 62
     7
 10
305.4367
 20
47.19998
 11
305.4367
 21
22.0
  0
LINE
  8
0
  6
CONTINUOUS
 62
     7
 10
305.4367
 20
47.0
 11
301.4367
 21
47.0
  0
LINE
  8
0
  6
CENTER
 62
     2
 10
308.4367
 20
39.0
 11
273.0367
 21
39.0
  0
LINE
  8
0
  6
CONTINUOUS
 62
     7
 10
278.4367
 20
65.17621
 11
278.4367
 21
58.69998
  0
LINE
  8
0
  6
CONTINUOUS
 62
     7
 10
293.2368
 20
65.17621
 11
293.2368
 21
58.69998
  0
LINE
  8
0
  6
CONTINUOUS
 62
     7
 10
291.6367
 20
66.09998
 11
280.0367
 21
66.09998
  0
LINE
  8
0
  6
CONTINUOUS
 62
     7
 10
277.2649
 20
36.19998
 11
277.9367
 21
36.19998
  0
LINE
  8
0
  6
CONTINUOUS
 62
     7
 10
277.2649
 20
41.79999
 11
277.9367
 21
41.79999
  0
LINE
  8
0
  6
CONTINUOUS
 62
     7
 10
277.9367
 20
35.75
 11
277.9367
 21
42.25
  0
LINE
  8
0
  6
CONTINUOUS
 62
     7
 10
277.9367
 20
35.75009
 11
278.4367
 21
35.75009
  0
LINE
  8
0
  6
CONTINUOUS
 62
     7
 10
277.9367
 20
42.25
 11
278.4367
 21
42.25
  0
LINE
  8
0
  6
CONTINUOUS
 62
     7
 10
293.2368
 20
58.69998
 11
278.4367
 21
58.69998
  0
LINE
  8
0
  6
CONTINUOUS
 62
     7
 10
293.2368
 20
59.69998
 11
278.4367
 21
59.69998
  0
LINE
  8
0
  6
CENTER
 62
     2
 10
285.8368
 20
69.09998
 11
285.8368
 21
28.60001
  0
LINE
  8
0
  6
CONTINUOUS
 62
     7
 10
290.8368
 20
44.0
 11
280.8368
 21
44.0
  0
LINE
  8
0
  6
CONTINUOUS
 62
     7
 10
290.8368
 20
34.0
 11
280.8368
 21
34.0
  0
LINE
  8
0
  6
CONTINUOUS
 62
     7
 10
290.8368
 20
44.0
 11
290.8368
 21
34.0
  0
LINE
  8
0
  6
CONTINUOUS
 62
     7
 10
280.8368
 20
44.0
 11
280.8368
 21
34.0
  0
LINE
  8
0
  6
CONTINUOUS
 62
     7
 10
289.8368
 20
44.0
 11
289.8368
 21
34.0
  0
LINE
  8
0
  6
CONTINUOUS
 62
     7
 10
288.8368
 20
44.0
 11
288.8368
 21
34.0
  0
LINE
  8
0
  6
CONTINUOUS
 62
     7
 10
287.8368
 20
44.0
 11
287.8368
 21
34.0
  0
LINE
  8
0
  6
CONTINUOUS
 62
     7
 10
286.8368
 20
44.0
 11
286.8368
 21
34.0
  0
LINE
  8
0
  6
CONTINUOUS
 62
     7
 10
285.8368
 20
44.0
 11
285.8368
 21
34.0
  0
LINE
  8
0
  6
CONTINUOUS
 62
     7
 10
284.8368
 20
44.0
 11
284.8368
 21
34.0
  0
LINE
  8
0
  6
CONTINUOUS
 62
     7
 10
283.8368
 20
44.0
 11
283.8368
 21
34.0
  0
LINE
  8
0
  6
CONTINUOUS
 62
     7
 10
282.8368
 20
44.0
 11
282.8368
 21
34.0
  0
LINE
  8
0
  6
CONTINUOUS
 62
     7
 10
281.8368
 20
44.0
 11
281.8368
 21
34.0
  0
LINE
  8
0
  6
CONTINUOUS
 62
     7
 10
280.0368
 20
66.09998
 11
278.4367
 21
65.17622
  0
LINE
  8
0
  6
CONTINUOUS
 62
     7
 10
291.6368
 20
66.09998
 11
293.2368
 21
65.17623
  0
LINE
  8
0
  6
CONTINUOUS
 62
     7
 10
289.6974
 20
65.17621
 11
289.6974
 21
59.69998
  0
LINE
  8
0
  6
CONTINUOUS
 62
     7
 10
289.3737
 20
65.17621
 11
289.3737
 21
59.69998
  0
LINE
  8
0
  6
CONTINUOUS
 62
     7
 10
282.2998
 20
65.17621
 11
282.2998
 21
59.69998
  0
LINE
  8
0
  6
CONTINUOUS
 62
     7
 10
281.976
 20
65.17621
 11
281.976
 21
59.69998
  0
LINE
  8
0
  6
CONTINUOUS
 62
     7
 10
289.6974
 20
65.17621
 11
289.3737
 21
65.17621
  0
LINE
  8
0
  6
CONTINUOUS
 62
     7
 10
282.2998
 20
65.17621
 11
281.976
 21
65.17621
  0
LINE
  8
0
  6
CONTINUOUS
 62
     7
 10
301.4367
 20
46.39999
 11
278.9367
 21
46.39999
  0
LINE
  8
0
  6
CONTINUOUS
 62
     7
 10
301.4367
 20
31.60001
 11
278.9367
 21
31.60001
  0
LINE
  8
0
  6
CONTINUOUS
 62
     7
 10
301.4367
 20
47.0
 11
301.4367
 21
22.0
  0
LINE
  8
0
  6
CONTINUOUS
 62
     7
 10
293.2368
 20
56.69998
 11
278.4367
 21
56.69998
  0
LINE
  8
0
  6
CONTINUOUS
 62
     7
 10
278.4367
 20
56.69998
 11
278.4367
 21
32.10001
  0
LINE
  8
0
  6
CONTINUOUS
 62
     7
 10
293.2368
 20
56.69998
 11
293.2368
 21
46.39999
  0
LINE
  8
0
  6
CONTINUOUS
 62
     7
 10
291.8368
 20
58.69998
 11
291.8368
 21
56.69998
  0
LINE
  8
0
  6
CONTINUOUS
 62
     7
 10
279.8368
 20
58.69998
 11
279.8368
 21
56.69998
  0
LINE
  8
0
  6
CONTINUOUS
 62
     7
 10
280.5132
 20
58.69998
 11
280.5132
 21
56.69998
  0
LINE
  8
0
  6
CONTINUOUS
 62
     7
 10
291.1602
 20
58.69998
 11
291.1602
 21
56.69998
  0
LINE
  8
0
  6
CONTINUOUS
 62
     7
 10
300.9368
 20
31.59998
 11
300.9368
 21
46.39999
  0
LINE
  8
0
  6
CONTINUOUS
 62
     7
 10
170.4368
 20
-154.3
 11
173.4368
 21
-154.3
  0
LINE
  8
0
  6
CONTINUOUS
 62
     7
 10
182.4368
 20
-165.9
 11
185.4368
 21
-165.9
  0
LINE
  8
0
  6
CONTINUOUS
 62
     7
 10
176.6367
 20
-151.1
 11
176.6367
 21
-148.1
  0
LINE
  8
0
  6
CONTINUOUS
 62
     7
 10
179.2368
 20
-169.1
 11
179.2368
 21
-172.1
  0
LINE
  8
0
  6
CENTER
 62
     2
 10
168.9367
 20
-160.1
 11
186.9367
 21
-160.1
  0
LINE
  8
0
  6
CENTER
 62
     2
 10
177.9368
 20
-113.9245
 11
177.9368
 21
-174.1
  0
LINE
  8
0
  6
CONTINUOUS
 62
     7
 10
171.4367
 20
-158.1
 11
184.4367
 21
-158.1
  0
LINE
  8
0
  6
CONTINUOUS
 62
     7
 10
171.4367
 20
-162.1
 11
184.4367
 21
-162.1
  0
LINE
  8
0
  6
CONTINUOUS
 62
     7
 10
184.4367
 20
-158.1
 11
184.4367
 21
-162.1
  0
LINE
  8
0
  6
CONTINUOUS
 62
     7
 10
171.4368
 20
-158.1
 11
171.4368
 21
-162.1
  0
LINE
  8
0
  6
CONTINUOUS
 62
     7
 10
172.1488
 20
-161.0698
 11
174.1371
 21
-161.0698
  0
LINE
  8
0
  6
CONTINUOUS
 62
     7
 10
172.1488
 20
-161.6
 11
174.844
 21
-161.6
  0
LINE
  8
0
  6
CONTINUOUS
 62
     7
 10
172.1488
 20
-159.5234
 11
174.1371
 21
-159.5234
  0
LINE
  8
0
  6
CONTINUOUS
 62
     7
 10
172.1488
 20
-158.9932
 11
172.1488
 21
-159.5234
  0
LINE
  8
0
  6
CONTINUOUS
 62
     7
 10
174.844
 20
-159.3467
 11
174.844
 21
-161.6
  0
LINE
  8
0
  6
CONTINUOUS
 62
     7
 10
174.1371
 20
-159.5234
 11
174.1371
 21
-161.0698
  0
LINE
  8
0
  6
CONTINUOUS
 62
     7
 10
175.2416
 20
-158.9932
 11
175.2416
 21
-159.5234
  0
LINE
  8
0
  6
CONTINUOUS
 62
     7
 10
177.76
 20
-159.5234
 11
177.76
 21
-161.2465
  0
LINE
  8
0
  6
CONTINUOUS
 62
     7
 10
177.0531
 20
-159.5234
 11
177.0531
 21
-161.0698
  0
LINE
  8
0
  6
CONTINUOUS
 62
     7
 10
172.1488
 20
-161.0698
 11
172.1488
 21
-161.6
  0
LINE
  8
0
  6
CONTINUOUS
 62
     7
 10
175.2416
 20
-158.9932
 11
175.9401
 21
-158.9932
  0
LINE
  8
0
  6
CONTINUOUS
 62
     7
 10
175.2416
 20
-161.6
 11
175.7905
 21
-161.6
  0
LINE
  8
0
  6
CONTINUOUS
 62
     7
 10
175.2416
 20
-161.6
 11
175.798
 21
-159.5234
  0
LINE
  8
0
  6
CONTINUOUS
 62
     7
 10
175.2416
 20
-159.5234
 11
175.798
 21
-159.5234
  0
LINE
  8
0
  6
CONTINUOUS
 62
     7
 10
175.7905
 20
-161.6
 11
176.3469
 21
-159.5234
  0
LINE
  8
0
  6
CONTINUOUS
 62
     7
 10
176.5229
 20
-161.0698
 11
177.0531
 21
-161.0698
  0
LINE
  8
0
  6
CONTINUOUS
 62
     7
 10
176.5229
 20
-161.0698
 11
176.665
 21
-161.6
  0
LINE
  8
0
  6
CONTINUOUS
 62
     7
 10
176.665
 20
-161.6
 11
177.4066
 21
-161.6
  0
LINE
  8
0
  6
CONTINUOUS
 62
     7
 10
176.3469
 20
-159.5234
 11
177.0531
 21
-159.5234
  0
LINE
  8
0
  6
CONTINUOUS
 62
     7
 10
176.489
 20
-158.9932
 11
177.2298
 21
-158.9932
  0
LINE
  8
0
  6
CONTINUOUS
 62
     7
 10
175.9401
 20
-158.9932
 11
176.0455
 21
-158.6
  0
LINE
  8
0
  6
CONTINUOUS
 62
     7
 10
176.489
 20
-158.9932
 11
176.5943
 21
-158.6
  0
LINE
  8
0
  6
CONTINUOUS
 62
     7
 10
178.2018
 20
-158.9932
 11
179.0413
 21
-158.9932
  0
LINE
  8
0
  6
CONTINUOUS
 62
     7
 10
178.2018
 20
-159.5234
 11
180.2636
 21
-159.5234
  0
LINE
  8
0
  6
CONTINUOUS
 62
     7
 10
179.0413
 20
-161.6
 11
179.7483
 21
-161.6
  0
LINE
  8
0
  6
CONTINUOUS
 62
     7
 10
178.2018
 20
-158.9932
 11
178.2018
 21
-159.5234
  0
LINE
  8
0
  6
CONTINUOUS
 62
     7
 10
180.8086
 20
-160.4848
 11
180.8086
 21
-161.0698
  0
LINE
  8
0
  6
CONTINUOUS
 62
     7
 10
178.2019
 20
-161.0698
 11
179.0414
 21
-160.6784
  0
LINE
  8
0
  6
CONTINUOUS
 62
     7
 10
178.2019
 20
-160.4848
 11
180.2636
 21
-159.5235
  0
LINE
  8
0
  6
CONTINUOUS
 62
     7
 10
178.2018
 20
-160.4848
 11
178.2018
 21
-161.0698
  0
LINE
  8
0
  6
CONTINUOUS
 62
     7
 10
179.7482
 20
-160.5753
 11
180.8087
 21
-161.0698
  0
LINE
  8
0
  6
CONTINUOUS
 62
     7
 10
180.1325
 20
-160.1695
 11
180.8087
 21
-160.4848
  0
LINE
  8
0
  6
CONTINUOUS
 62
     7
 10
180.8086
 20
-159.3467
 11
180.8086
 21
-159.6291
  0
LINE
  8
0
  6
CONTINUOUS
 62
     7
 10
179.0413
 20
-158.6
 11
179.0413
 21
-158.9932
  0
LINE
  8
0
  6
CONTINUOUS
 62
     7
 10
179.7483
 20
-158.6
 11
179.7483
 21
-158.9932
  0
LINE
  8
0
  6
CONTINUOUS
 62
     7
 10
179.7483
 20
-158.9932
 11
180.4552
 21
-158.9932
  0
LINE
  8
0
  6
CONTINUOUS
 62
     7
 10
179.0413
 20
-160.6784
 11
179.0413
 21
-161.6
  0
LINE
  8
0
  6
CONTINUOUS
 62
     7
 10
179.7483
 20
-160.5753
 11
179.7483
 21
-161.6
  0
LINE
  8
0
  6
CONTINUOUS
 62
     7
 10
180.1326
 20
-160.1696
 11
180.6046
 21
-159.9495
  0
LINE
  8
0
  6
CONTINUOUS
 62
     7
 10
183.1945
 20
-158.759
 11
183.7247
 21
-158.759
  0
LINE
  8
0
  6
CONTINUOUS
 62
     7
 10
181.0295
 20
-159.8542
 11
181.0295
 21
-160.4248
  0
LINE
  8
0
  6
CONTINUOUS
 62
     7
 10
183.7247
 20
-158.759
 11
183.7247
 21
-158.9932
  0
LINE
  8
0
  6
CONTINUOUS
 62
     7
 10
183.1945
 20
-158.759
 11
183.1945
 21
-158.8733
  0
LINE
  8
0
  6
CONTINUOUS
 62
     7
 10
182.4876
 20
-159.845
 11
182.4876
 21
-161.6
  0
LINE
  8
0
  6
CONTINUOUS
 62
     7
 10
181.0296
 20
-159.8543
 11
183.0831
 21
-159.0376
  0
LINE
  8
0
  6
CONTINUOUS
 62
     7
 10
181.0296
 20
-160.4248
 11
182.4876
 21
-159.8449
  0
LINE
  8
0
  6
CONTINUOUS
 62
     7
 10
182.4876
 20
-161.6
 11
183.1945
 21
-161.6
  0
LINE
  8
0
  6
CONTINUOUS
 62
     7
 10
183.1945
 20
-159.5638
 11
183.1945
 21
-161.6
  0
LINE
  8
0
  6
CONTINUOUS
 62
     7
 10
183.1945
 20
-159.5638
 11
183.3905
 21
-159.4859
  0
LINE
  8
0
  6
CONTINUOUS
 62
     7
 10
176.0455
 20
-158.6
 11
176.5943
 21
-158.6
  0
LINE
  8
0
  6
CONTINUOUS
 62
     7
 10
177.4728
 20
-158.6
 11
177.6988
 21
-158.6
  0
LINE
  8
0
  6
CONTINUOUS
 62
     7
 10
179.0413
 20
-158.6
 11
179.7483
 21
-158.6
  0
LINE
  8
0
  6
CONTINUOUS
 62
     7
 10
177.4728
 20
-158.9534
 11
177.6988
 21
-158.9534
  0
LINE
  8
0
  6
CONTINUOUS
 62
     7
 10
177.4728
 20
-158.6
 11
177.4728
 21
-158.9534
  0
LINE
  8
0
  6
CONTINUOUS
 62
     7
 10
177.6989
 20
-158.6
 11
177.6989
 21
-158.9534
  0
LINE
  8
0
  6
CONTINUOUS
 62
     7
 10
177.8566
 20
-158.6
 11
177.8566
 21
-158.9534
  0
LINE
  8
0
  6
CONTINUOUS
 62
     7
 10
178.0826
 20
-158.6
 11
178.0826
 21
-158.9534
  0
LINE
  8
0
  6
CONTINUOUS
 62
     7
 10
177.8566
 20
-158.6
 11
178.0826
 21
-158.6
  0
LINE
  8
0
  6
CONTINUOUS
 62
     7
 10
177.8566
 20
-158.9534
 11
178.0826
 21
-158.9534
  0
LINE
  8
0
  6
CONTINUOUS
 62
     7
 10
185.4367
 20
-171.6
 11
185.4367
 21
-141.1
  0
LINE
  8
0
  6
CONTINUOUS
 62
     7
 10
170.4368
 20
-171.6
 11
170.4368
 21
-141.1
  0
LINE
  8
0
  6
CONTINUOUS
 62
     7
 10
170.9367
 20
-172.1
 11
184.9367
 21
-172.1
  0
LINE
  8
0
  6
CONTINUOUS
 62
     7
 10
170.4367
 20
-148.1
 11
185.4367
 21
-148.1
  0
LINE
  8
0
  6
CONTINUOUS
 62
     7
 10
172.1488
 20
-158.9932
 11
174.4905
 21
-158.9932
  0
LINE
  8
0
  6
CONTINUOUS
 62
     7
 10
177.76
 20
-159.5234
 11
177.76
 21
-161.2465
  0
LINE
  8
0
  6
CONTINUOUS
 62
     7
 10
176.665
 20
-161.6
 11
177.4066
 21
-161.6
  0
LINE
  8
0
  6
CONTINUOUS
 62
     7
 10
176.489
 20
-158.9932
 11
177.2298
 21
-158.9932
  0
LINE
  8
0
  6
CONTINUOUS
 62
     7
 10
180.8086
 20
-159.3467
 11
180.8086
 21
-159.6291
  0
LINE
  8
0
  6
CONTINUOUS
 62
     7
 10
183.1945
 20
-158.759
 11
183.7247
 21
-158.759
  0
LINE
  8
0
  6
CONTINUOUS
 62
     7
 10
183.7247
 20
-158.759
 11
183.7247
 21
-158.9932
  0
LINE
  8
0
  6
CONTINUOUS
 62
     7
 10
183.1945
 20
-158.759
 11
183.1945
 21
-158.8733
  0
LINE
  8
0
  6
CONTINUOUS
 62
     7
 10
181.0296
 20
-159.8543
 11
183.0831
 21
-159.0376
  0
LINE
  8
0
  6
CONTINUOUS
 62
     7
 10
183.1945
 20
-159.5638
 11
183.1945
 21
-161.6
  0
LINE
  8
0
  6
CONTINUOUS
 62
     7
 10
183.1945
 20
-159.5638
 11
183.3904
 21
-159.4858
  0
LINE
  8
0
  6
CENTER
 62
     2
 10
173.4368
 20
-155.279
 11
173.4368
 21
-146.9321
  0
LINE
  8
0
  6
CENTER
 62
     2
 10
169.4045
 20
-151.1
 11
177.3465
 21
-151.1
  0
LINE
  8
0
  6
CONTINUOUS
 62
     7
 10
172.5883
 20
-152.3728
 11
172.164
 21
-151.9486
  0
LINE
  8
0
  6
CONTINUOUS
 62
     7
 10
174.7096
 20
-150.2515
 11
174.2853
 21
-149.8272
  0
LINE
  8
0
  6
CONTINUOUS
 62
     7
 10
174.2853
 20
-152.3728
 11
173.861
 21
-151.9486
  0
LINE
  8
0
  6
CONTINUOUS
 62
     7
 10
174.7096
 20
-151.9485
 11
174.2853
 21
-151.5243
  0
LINE
  8
0
  6
CONTINUOUS
 62
     7
 10
174.2854
 20
-152.3728
 11
174.7096
 21
-151.9485
  0
LINE
  8
0
  6
CONTINUOUS
 62
     7
 10
172.164
 20
-150.2514
 11
172.5883
 21
-149.8272
  0
LINE
  8
0
  6
CONTINUOUS
 62
     7
 10
172.5883
 20
-152.3728
 11
173.0126
 21
-151.9485
  0
LINE
  8
0
  6
CONTINUOUS
 62
     7
 10
172.164
 20
-151.9485
 11
172.5883
 21
-151.5243
  0
LINE
  8
0
  6
CONTINUOUS
 62
     7
 10
172.5883
 20
-150.6758
 11
172.164
 21
-150.2515
  0
LINE
  8
0
  6
CONTINUOUS
 62
     7
 10
173.0125
 20
-150.2515
 11
172.5883
 21
-149.8272
  0
LINE
  8
0
  6
CONTINUOUS
 62
     7
 10
174.2854
 20
-150.6758
 11
174.7096
 21
-150.2515
  0
LINE
  8
0
  6
CONTINUOUS
 62
     7
 10
173.8611
 20
-150.2515
 11
174.2854
 21
-149.8272
  0
LINE
  8
0
  6
CENTER
 62
     2
 10
182.4368
 20
-173.279
 11
182.4368
 21
-164.9321
  0
LINE
  8
0
  6
CENTER
 62
     2
 10
178.4044
 20
-169.1
 11
186.3465
 21
-169.1
  0
LINE
  8
0
  6
CONTINUOUS
 62
     7
 10
181.5882
 20
-170.3728
 11
181.164
 21
-169.9486
  0
LINE
  8
0
  6
CONTINUOUS
 62
     7
 10
183.7096
 20
-168.2515
 11
183.2853
 21
-167.8272
  0
LINE
  8
0
  6
CONTINUOUS
 62
     7
 10
183.2854
 20
-170.3728
 11
182.8611
 21
-169.9485
  0
LINE
  8
0
  6
CONTINUOUS
 62
     7
 10
183.7096
 20
-169.9486
 11
183.2853
 21
-169.5243
  0
LINE
  8
0
  6
CONTINUOUS
 62
     7
 10
183.2853
 20
-170.3727
 11
183.7096
 21
-169.9485
  0
LINE
  8
0
  6
CONTINUOUS
 62
     7
 10
181.164
 20
-168.2515
 11
181.5882
 21
-167.8272
  0
LINE
  8
0
  6
CONTINUOUS
 62
     7
 10
181.5883
 20
-170.3728
 11
182.0126
 21
-169.9486
  0
LINE
  8
0
  6
CONTINUOUS
 62
     7
 10
181.164
 20
-169.9485
 11
181.5883
 21
-169.5243
  0
LINE
  8
0
  6
CONTINUOUS
 62
     7
 10
181.5883
 20
-168.6757
 11
181.164
 21
-168.2515
  0
LINE
  8
0
  6
CONTINUOUS
 62
     7
 10
182.0125
 20
-168.2515
 11
181.5882
 21
-167.8273
  0
LINE
  8
0
  6
CONTINUOUS
 62
     7
 10
183.2854
 20
-168.6758
 11
183.7096
 21
-168.2515
  0
LINE
  8
0
  6
CONTINUOUS
 62
     7
 10
182.8611
 20
-168.2515
 11
183.2853
 21
-167.8272
  0
LINE
  8
0
  6
CONTINUOUS
 62
     7
 10
170.4368
 20
-145.1
 11
185.4368
 21
-145.1
  0
LINE
  8
0
  6
CONTINUOUS
 62
     7
 10
170.4368
 20
-141.1
 11
185.4368
 21
-141.1
  0
LINE
  8
0
  6
CONTINUOUS
 62
     7
 10
185.3368
 20
-141.1
 11
185.3368
 21
-118.6
  0
LINE
  8
0
  6
CONTINUOUS
 62
     7
 10
170.5368
 20
-141.1
 11
170.5368
 21
-118.6
  0
LINE
  8
0
  6
CONTINUOUS
 62
     7
 10
171.0368
 20
-118.1
 11
184.8368
 21
-118.1
  0
LINE
  8
0
  6
CONTINUOUS
 62
     7
 10
180.7368
 20
-116.9282
 11
180.7368
 21
-117.6
  0
LINE
  8
0
  6
CONTINUOUS
 62
     7
 10
175.1367
 20
-116.9282
 11
175.1367
 21
-117.6
  0
LINE
  8
0
  6
CONTINUOUS
 62
     7
 10
181.1868
 20
-117.6
 11
174.6868
 21
-117.6
  0
LINE
  8
0
  6
CONTINUOUS
 62
     7
 10
181.1867
 20
-117.6
 11
181.1867
 21
-118.1
  0
LINE
  8
0
  6
CONTINUOUS
 62
     7
 10
174.6867
 20
-117.6
 11
174.6867
 21
-118.1
  0
LINE
  8
0
  6
CENTER
 62
     2
 10
167.5368
 20
-125.5
 11
188.3368
 21
-125.5
  0
LINE
  8
0
  6
CONTINUOUS
 62
     7
 10
170.5368
 20
-140.6
 11
185.3368
 21
-140.6
  0
ARC
  8
0
  6
CONTINUOUS
 62
     7
 10
273.0354
 20
-235.0457
 40
2.21188
 50
0.0
 51
89.99999
  0
ARC
  8
0
  6
CONTINUOUS
 62
     7
 10
291.2836
 20
-246.9346
 40
2.2119
 50
270.0
 51
0.0
  0
ARC
  8
0
  6
CONTINUOUS
 62
     7
 10
290.1776
 20
-236.1516
 40
3.31784
 50
0.0
 51
89.99999
  0
ARC
  8
0
  6
CONTINUOUS
 62
     7
 10
310.3611
 20
-236.8128
 40
2.21189
 50
295.0
 51
0.0
  0
ARC
  8
0
  6
CONTINUOUS
 62
     7
 10
310.3611
 20
-235.0457
 40
2.21188
 50
0.0
 51
89.99999
  0
ARC
  8
0
  6
CONTINUOUS
 62
     7
 10
327.5034
 20
-232.8338
 40
3.31784
 50
291.6884
 51
0.0
  0
ARC
  8
0
  6
CONTINUOUS
 62
     7
 10
326.3973
 20
-232.0834
 40
1.10595
 50
291.689
 51
0.0
  0
ARC
  8
0
  6
CONTINUOUS
 62
     7
 10
-205.9368
 20
-24.0
 40
0.5
 50
180.0
 51
270.0
  0
ARC
  8
0
  6
CONTINUOUS
 62
     7
 10
-182.9368
 20
-24.0
 40
0.5
 50
300.0
 51
0.0
  0
ARC
  8
0
  6
CONTINUOUS
 62
     7
 10
-188.1367
 20
-20.0
 40
0.5
 50
89.99999
 51
180.0
  0
ARC
  8
0
  6
CONTINUOUS
 62
     7
 10
-189.1367
 20
-24.0
 40
0.5
 50
270.0
 51
0.0
  0
ARC
  8
0
  6
CONTINUOUS
 62
     7
 10
-182.9368
 20
-19.0
 40
0.5
 50
270.0
 51
0.0
  0
CIRCLE
  8
0
  6
CONTINUOUS
 62
     7
 10
-188.4368
 20
1.0
 40
1.6
  0
CIRCLE
  8
0
  6
CONTINUOUS
 62
     7
 10
-188.4368
 20
-13.0
 40
1.6
  0
ARC
  8
0
  6
CONTINUOUS
 62
     7
 10
-185.4368
 20
44.5
 40
6.0
 50
73.80862
 51
106.1914
  0
ARC
  8
0
  6
CONTINUOUS
 62
     7
 10
-183.9868
 20
49.49374
 40
0.8
 50
0.0
 51
73.8082
  0
ARC
  8
0
  6
CONTINUOUS
 62
     7
 10
-186.8868
 20
49.49374
 40
0.8
 50
106.1918
 51
180.0
  0
ARC
  8
0
  6
CONTINUOUS
 62
     7
 10
-203.4368
 20
44.49997
 40
6.0
 50
73.80862
 51
106.1914
  0
ARC
  8
0
  6
CONTINUOUS
 62
     7
 10
-204.8868
 20
49.49374
 40
0.8
 50
106.1918
 51
118.0138
  0
ARC
  8
0
  6
CONTINUOUS
 62
     7
 10
-201.9868
 20
49.49374
 40
0.8
 50
61.98621
 51
73.8082
  0
ARC
  8
0
  6
CONTINUOUS
 62
     7
 10
-152.9368
 20
32.10001
 40
0.5
 50
270.0
 51
0.0
  0
ARC
  8
0
  6
CONTINUOUS
 62
     7
 10
-152.9368
 20
45.89999
 40
0.5
 50
0.0
 51
89.99999
  0
ARC
  8
0
  6
CONTINUOUS
 62
     7
 10
-155.0368
 20
39.0
 40
5.0
 50
330.5077
 51
29.49232
  0
ARC
  8
0
  6
CONTINUOUS
 62
     7
 10
-151.265
 20
36.86667
 40
0.66667
 50
270.0
 51
330.5074
  0
ARC
  8
0
  6
CONTINUOUS
 62
     7
 10
-151.265
 20
41.13333
 40
0.66666
 50
29.49256
 51
89.99999
  0
ARC
  8
0
  6
CONTINUOUS
 62
     7
 10
-154.2064
 20
62.42261
 40
3.27324
 50
62.72894
 51
122.7273
  0
ARC
  8
0
  6
CONTINUOUS
 62
     7
 10
-159.8368
 20
53.39838
 40
12.29748
 50
73.28477
 51
106.7153
  0
ARC
  8
0
  6
CONTINUOUS
 62
     7
 10
-165.4671
 20
62.42261
 40
3.27326
 50
57.27284
 51
117.273
  0
ARC
  8
0
  6
CONTINUOUS
 62
     7
 10
-185.4368
 20
131.0
 40
3.0
 50
89.99999
 51
180.0
  0
ARC
  8
0
  6
CONTINUOUS
 62
     7
 10
-203.4368
 20
140.0
 40
3.0
 50
270.0
 51
0.0
  0
ARC
  8
0
  6
CONTINUOUS
 62
     7
 10
-185.4368
 20
131.0
 40
2.55
 50
276.7564
 51
263.2436
  0
ARC
  8
0
  6
CONTINUOUS
 62
     7
 10
-203.4368
 20
140.0
 40
2.55
 50
96.7564
 51
83.24359
  0
CIRCLE
  8
0
  6
CONTINUOUS
 62
     7
 10
-185.4368
 20
131.0
 40
2.25
  0
ARC
  8
0
  6
CONTINUOUS
 62
     7
 10
-185.4368
 20
132.1031
 40
0.51999
 50
225.0
 51
315.0
  0
ARC
  8
0
  6
CONTINUOUS
 62
     7
 10
-186.5399
 20
131.0
 40
0.51999
 50
315.0
 51
45.0
  0
ARC
  8
0
  6
CONTINUOUS
 62
     7
 10
-184.3337
 20
131.0
 40
0.51999
 50
135.0
 51
225.0
  0
ARC
  8
0
  6
CONTINUOUS
 62
     7
 10
-185.4368
 20
129.8969
 40
0.51999
 50
45.0
 51
135.0
  0
CIRCLE
  8
0
  6
CONTINUOUS
 62
     7
 10
-203.4368
 20
140.0
 40
2.25
  0
ARC
  8
0
  6
CONTINUOUS
 62
     7
 10
-203.4368
 20
141.1031
 40
0.51999
 50
225.0
 51
315.0
  0
ARC
  8
0
  6
CONTINUOUS
 62
     7
 10
-204.5399
 20
140.0
 40
0.51999
 50
315.0
 51
45.0
  0
ARC
  8
0
  6
CONTINUOUS
 62
     7
 10
-202.3337
 20
140.0
 40
0.51999
 50
135.0
 51
225.0
  0
ARC
  8
0
  6
CONTINUOUS
 62
     7
 10
-203.4368
 20
138.8969
 40
0.51999
 50
45.0
 51
135.0
  0
ARC
  8
0
  6
CONTINUOUS
 62
     7
 10
-205.9368
 20
142.5
 40
0.5
 50
89.99999
 51
180.0
  0
ARC
  8
0
  6
CONTINUOUS
 62
     7
 10
-205.9368
 20
128.5
 40
0.5
 50
180.0
 51
270.0
  0
CIRCLE
  8
0
  6
CONTINUOUS
 62
     7
 10
-159.8368
 20
135.5
 40
7.4
  0
CIRCLE
  8
0
  6
CONTINUOUS
 62
     7
 10
-159.8368
 20
135.5
 40
3.8
  0
CIRCLE
  8
0
  6
CONTINUOUS
 62
     7
 10
-159.8368
 20
135.5
 40
5.8
  0
ARC
  8
0
  6
CONTINUOUS
 62
     7
 10
-152.9368
 20
128.6
 40
0.5
 50
270.0
 51
0.0
  0
ARC
  8
0
  6
CONTINUOUS
 62
     7
 10
-155.0368
 20
135.5
 40
5.0
 50
330.5077
 51
29.49228
  0
ARC
  8
0
  6
CONTINUOUS
 62
     7
 10
-151.265
 20
137.6333
 40
0.66666
 50
29.49227
 51
89.99999
  0
ARC
  8
0
  6
CONTINUOUS
 62
     7
 10
-151.265
 20
133.3667
 40
0.66667
 50
270.0
 51
330.5077
  0
ARC
  8
0
  6
CONTINUOUS
 62
     7
 10
-152.9368
 20
142.4
 40
0.5
 50
0.0
 51
89.99999
  0
ARC
  8
0
  6
CONTINUOUS
 62
     7
 10
-313.9368
 20
-23.99994
 40
0.5
 50
180.0
 51
240.0
  0
ARC
  8
0
  6
CONTINUOUS
 62
     7
 10
-299.9368
 20
-23.99994
 40
0.5
 50
270.0
 51
0.0
  0
ARC
  8
0
  6
CONTINUOUS
 62
     7
 10
-308.7368
 20
-19.99994
 40
0.5
 50
0.0
 51
89.99999
  0
ARC
  8
0
  6
CONTINUOUS
 62
     7
 10
-313.9368
 20
-18.99994
 40
0.5
 50
180.0
 51
270.0
  0
ARC
  8
0
  6
CONTINUOUS
 62
     7
 10
-307.7368
 20
-23.99994
 40
0.5
 50
180.0
 51
270.0
  0
CIRCLE
  8
0
  6
CONTINUOUS
 62
     7
 10
-301.4368
 20
0.00006
 40
1.4
  0
CIRCLE
  8
0
  6
CONTINUOUS
 62
     7
 10
-312.4368
 20
-11.99994
 40
1.4
  0
CIRCLE
  8
0
  6
CONTINUOUS
 62
     7
 10
-309.9368
 20
1.00006
 40
2.5
  0
CIRCLE
  8
0
  6
CONTINUOUS
 62
     7
 10
-306.9368
 20
-8.99994
 40
2.5
  0
CIRCLE
  8
0
  6
CONTINUOUS
 62
     7
 10
-306.9368
 20
13.70007
 40
2.65
  0
CIRCLE
  8
0
  6
CONTINUOUS
 62
     7
 10
-306.9368
 20
13.70007
 40
2.0
  0
CIRCLE
  8
0
  6
CONTINUOUS
 62
     7
 10
-306.9368
 20
-8.99994
 40
1.75
  0
CIRCLE
  8
0
  6
CONTINUOUS
 62
     7
 10
-309.9368
 20
1.00006
 40
1.75
  0
ARC
  8
0
  6
CONTINUOUS
 62
     7
 10
-310.383
 20
42.95337
 40
0.35345
 50
0.0
 51
89.99999
  0
ARC
  8
0
  6
CONTINUOUS
 62
     7
 10
-307.467
 20
41.0535
 40
0.35346
 50
270.0
 51
0.0
  0
ARC
  8
0
  6
CONTINUOUS
 62
     7
 10
-307.6437
 20
42.77664
 40
0.53018
 50
0.0
 51
89.99999
  0
ARC
  8
0
  6
CONTINUOUS
 62
     7
 10
-304.4183
 20
42.95337
 40
0.35345
 50
0.0
 51
89.99999
  0
ARC
  8
0
  6
CONTINUOUS
 62
     7
 10
-304.4183
 20
42.67099
 40
0.35347
 50
295.0005
 51
0.0
  0
ARC
  8
0
  6
CONTINUOUS
 62
     7
 10
-301.679
 20
43.30685
 40
0.53019
 50
291.6869
 51
0.0
  0
ARC
  8
0
  6
CONTINUOUS
 62
     7
 10
-301.8558
 20
43.42676
 40
0.17673
 50
291.687
 51
0.0
  0
ARC
  8
0
  6
CONTINUOUS
 62
     7
 10
-312.8868
 20
49.4938
 40
0.8
 50
106.1918
 51
180.0
  0
ARC
  8
0
  6
CONTINUOUS
 62
     7
 10
-311.4368
 20
44.50003
 40
6.0
 50
73.80876
 51
106.1912
  0
ARC
  8
0
  6
CONTINUOUS
 62
     7
 10
-309.9868
 20
49.4938
 40
0.79999
 50
0.0
 51
73.8082
  0
ARC
  8
0
  6
CONTINUOUS
 62
     7
 10
-302.4368
 20
44.50006
 40
6.0
 50
73.80876
 51
106.1912
  0
ARC
  8
0
  6
CONTINUOUS
 62
     7
 10
-303.8868
 20
49.4938
 40
0.8
 50
106.1918
 51
118.0148
  0
ARC
  8
0
  6
CONTINUOUS
 62
     7
 10
-300.9868
 20
49.4938
 40
0.80001
 50
61.98524
 51
73.8082
  0
ARC
  8
0
  6
CONTINUOUS
 62
     7
 10
-303.5933
 20
55.84854
 40
9.84738
 50
71.30395
 51
108.696
  0
ARC
  8
0
  6
CONTINUOUS
 62
     7
 10
-310.2802
 20
55.84854
 40
9.84738
 50
71.30395
 51
108.696
  0
ARC
  8
0
  6
CONTINUOUS
 62
     7
 10
-57.93671
 20
-23.99997
 40
0.5
 50
180.0
 51
240.0
  0
ARC
  8
0
  6
CONTINUOUS
 62
     7
 10
-43.93671
 20
-23.99997
 40
0.5
 50
270.0
 51
0.0
  0
ARC
  8
0
  6
CONTINUOUS
 62
     7
 10
-52.73671
 20
-19.99997
 40
0.5
 50
0.0
 51
89.99999
  0
ARC
  8
0
  6
CONTINUOUS
 62
     7
 10
-57.93671
 20
-18.99997
 40
0.5
 50
180.0
 51
270.0
  0
ARC
  8
0
  6
CONTINUOUS
 62
     7
 10
-51.73671
 20
-23.99997
 40
0.5
 50
180.0
 51
270.0
  0
ARC
  8
0
  6
CONTINUOUS
 62
     7
 10
-45.43671
 20
-11.99997
 40
2.7
 50
42.20544
 51
317.7946
  0
ARC
  8
0
  6
CONTINUOUS
 62
     7
 10
-56.43671
 20
0.00003
 40
2.7
 50
0.0
 51
137.7946
  0
ARC
  8
0
  6
CONTINUOUS
 62
     7
 10
-56.43671
 20
0.00003
 40
2.7
 50
222.2054
 51
0.0
  0
CIRCLE
  8
0
  6
CONTINUOUS
 62
     7
 10
-56.43671
 20
0.00003
 40
1.4
  0
CIRCLE
  8
0
  6
CONTINUOUS
 62
     7
 10
-45.43671
 20
-11.99997
 40
1.4
  0
CIRCLE
  8
0
  6
CONTINUOUS
 62
     7
 10
-47.93671
 20
-3.99997
 40
2.5
  0
CIRCLE
  8
0
  6
CONTINUOUS
 62
     7
 10
-50.93671
 20
18.50003
 40
1.5
  0
CIRCLE
  8
0
  6
CONTINUOUS
 62
     7
 10
-47.93671
 20
-3.99997
 40
1.75
  0
ARC
  8
0
  6
CONTINUOUS
 62
     7
 10
-57.83672
 20
32.10004
 40
0.5
 50
180.0
 51
270.0
  0
ARC
  8
0
  6
CONTINUOUS
 62
     7
 10
-44.03671
 20
32.10004
 40
0.5
 50
270.0
 51
0.0
  0
ARC
  8
0
  6
CONTINUOUS
 62
     7
 10
-57.83672
 20
45.90002
 40
0.5
 50
89.99999
 51
180.0
  0
ARC
  8
0
  6
CONTINUOUS
 62
     7
 10
-44.03671
 20
45.90002
 40
0.5
 50
0.0
 51
89.99999
  0
CIRCLE
  8
0
  6
CONTINUOUS
 62
     7
 10
-50.93671
 20
39.00003
 40
2.8
  0
ARC
  8
0
  6
CONTINUOUS
 62
     7
 10
-50.93671
 20
40.27283
 40
0.6
 50
225.0
 51
315.0
  0
ARC
  8
0
  6
CONTINUOUS
 62
     7
 10
-52.2095
 20
39.00003
 40
0.6
 50
315.0
 51
45.0
  0
ARC
  8
0
  6
CONTINUOUS
 62
     7
 10
-49.66393
 20
39.00003
 40
0.6
 50
135.0
 51
225.0
  0
ARC
  8
0
  6
CONTINUOUS
 62
     7
 10
-50.93671
 20
37.72723
 40
0.6
 50
45.0
 51
135.0
  0
CIRCLE
  8
0
  6
CONTINUOUS
 62
     7
 10
-50.93671
 20
39.00003
 40
3.25
  0
ARC
  8
0
  6
CONTINUOUS
 62
     7
 10
-47.59326
 20
55.84851
 40
9.84738
 50
71.30401
 51
108.696
  0
ARC
  8
0
  6
CONTINUOUS
 62
     7
 10
-54.28018
 20
55.84851
 40
9.84738
 50
71.30401
 51
108.696
  0
ARC
  8
0
  6
CONTINUOUS
 62
     7
 10
-185.4368
 20
-121.0
 40
3.2
 50
180.0
 51
270.0
  0
ARC
  8
0
  6
CONTINUOUS
 62
     7
 10
-203.4368
 20
-130.0
 40
3.2
 50
0.0
 51
89.99999
  0
CIRCLE
  8
0
  6
CONTINUOUS
 62
     7
 10
-203.4368
 20
-130.0
 40
2.75
  0
CIRCLE
  8
0
  6
CONTINUOUS
 62
     7
 10
-185.4368
 20
-121.0
 40
2.75
  0
CIRCLE
  8
0
  6
CONTINUOUS
 62
     7
 10
-185.4368
 20
-121.0
 40
1.0565
  0
CIRCLE
  8
0
  6
CONTINUOUS
 62
     7
 10
-203.4368
 20
-130.0
 40
1.0565
  0
ARC
  8
0
  6
CONTINUOUS
 62
     7
 10
-193.6835
 20
-122.0537
 40
0.35346
 50
270.0
 51
0.0
  0
ARC
  8
0
  6
CONTINUOUS
 62
     7
 10
-195.5833
 20
-124.9698
 40
0.35345
 50
180.0
 51
270.0
  0
ARC
  8
0
  6
CONTINUOUS
 62
     7
 10
-193.8602
 20
-124.7931
 40
0.53019
 50
270.0
 51
0.0
  0
ARC
  8
0
  6
CONTINUOUS
 62
     7
 10
-193.6834
 20
-128.0184
 40
0.35345
 50
270.0
 51
0.0
  0
ARC
  8
0
  6
CONTINUOUS
 62
     7
 10
-193.9659
 20
-128.0184
 40
0.35346
 50
205.0007
 51
270.0
  0
ARC
  8
0
  6
CONTINUOUS
 62
     7
 10
-193.33
 20
-130.7578
 40
0.53019
 50
201.6884
 51
270.0
  0
ARC
  8
0
  6
CONTINUOUS
 62
     7
 10
-193.2101
 20
-130.581
 40
0.17672
 50
201.6875
 51
270.0
  0
ARC
  8
0
  6
CONTINUOUS
 62
     7
 10
-205.9368
 20
-118.5
 40
0.5
 50
89.99999
 51
180.0
  0
ARC
  8
0
  6
CONTINUOUS
 62
     7
 10
-205.9368
 20
-132.5
 40
0.5
 50
180.0
 51
270.0
  0
CIRCLE
  8
0
  6
CONTINUOUS
 62
     7
 10
-203.4368
 20
-130.0
 40
1.3
  0
CIRCLE
  8
0
  6
CONTINUOUS
 62
     7
 10
-185.4368
 20
-121.0
 40
1.3
  0
ARC
  8
0
  6
CONTINUOUS
 62
     7
 10
-205.9368
 20
-118.5
 40
0.5
 50
89.99999
 51
180.0
  0
ARC
  8
0
  6
CONTINUOUS
 62
     7
 10
-205.9368
 20
-132.5
 40
0.5
 50
180.0
 51
270.0
  0
ARC
  8
0
  6
CONTINUOUS
 62
     7
 10
-152.9368
 20
-118.6
 40
0.5
 50
0.0
 51
89.99999
  0
ARC
  8
0
  6
CONTINUOUS
 62
     7
 10
-152.9368
 20
-132.4
 40
0.5
 50
270.0
 51
0.0
  0
ARC
  8
0
  6
CONTINUOUS
 62
     7
 10
-155.0368
 20
-125.5
 40
5.0
 50
330.5077
 51
29.49236
  0
ARC
  8
0
  6
CONTINUOUS
 62
     7
 10
-151.265
 20
-127.6333
 40
0.66667
 50
270.0
 51
330.5077
  0
ARC
  8
0
  6
CONTINUOUS
 62
     7
 10
-151.265
 20
-123.3667
 40
0.66666
 50
29.49227
 51
89.99999
  0
ARC
  8
0
  6
CONTINUOUS
 62
     7
 10
170.9368
 20
-24.0
 40
0.5
 50
180.0
 51
270.0
  0
ARC
  8
0
  6
CONTINUOUS
 62
     7
 10
184.9368
 20
-24.0
 40
0.5
 50
270.0
 51
0.0
  0
ARC
  8
0
  6
CONTINUOUS
 62
     7
 10
176.1367
 20
-20.0
 40
0.5
 50
0.0
 51
89.99999
  0
ARC
  8
0
  6
CONTINUOUS
 62
     7
 10
170.9368
 20
-19.0
 40
0.5
 50
180.0
 51
270.0
  0
ARC
  8
0
  6
CONTINUOUS
 62
     7
 10
177.1367
 20
-24.0
 40
0.5
 50
180.0
 51
270.0
  0
ARC
  8
0
  6
CONTINUOUS
 62
     7
 10
183.4368
 20
-12.0
 40
2.7
 50
42.20544
 51
317.7946
  0
ARC
  8
0
  6
CONTINUOUS
 62
     7
 10
172.4368
 20
0.0
 40
2.7
 50
0.0
 51
137.7946
  0
ARC
  8
0
  6
CONTINUOUS
 62
     7
 10
172.4368
 20
0.0
 40
2.7
 50
222.2054
 51
0.0
  0
CIRCLE
  8
0
  6
CONTINUOUS
 62
     7
 10
172.4368
 20
0.0
 40
1.4
  0
CIRCLE
  8
0
  6
CONTINUOUS
 62
     7
 10
183.4368
 20
-12.0
 40
1.4
  0
CIRCLE
  8
0
  6
CONTINUOUS
 62
     7
 10
177.9368
 20
18.5
 40
1.5
  0
ARC
  8
0
  6
CONTINUOUS
 62
     7
 10
173.4368
 20
-16.5
 40
5.0
 50
241.2644
 51
298.7356
  0
ARC
  8
0
  6
CONTINUOUS
 62
     7
 10
171.3535
 20
-20.29967
 40
0.66667
 50
180.0
 51
241.2645
  0
ARC
  8
0
  6
CONTINUOUS
 62
     7
 10
175.5201
 20
-20.29967
 40
0.66667
 50
298.7355
 51
0.0
  0
CIRCLE
  8
0
  6
CONTINUOUS
 62
     7
 10
177.9368
 20
39.0
 40
3.25
  0
ARC
  8
0
  6
CONTINUOUS
 62
     7
 10
174.5933
 20
55.84848
 40
9.84738
 50
71.30403
 51
108.696
  0
ARC
  8
0
  6
CONTINUOUS
 62
     7
 10
177.9368
 20
37.7272
 40
0.6
 50
44.99949
 51
135.0005
  0
ARC
  8
0
  6
CONTINUOUS
 62
     7
 10
181.2802
 20
55.84845
 40
9.84738
 50
71.30403
 51
108.696
  0
ARC
  8
0
  6
CONTINUOUS
 62
     7
 10
171.0368
 20
32.10001
 40
0.5
 50
180.0
 51
270.0
  0
ARC
  8
0
  6
CONTINUOUS
 62
     7
 10
184.8368
 20
32.10001
 40
0.5
 50
270.0
 51
0.0
  0
ARC
  8
0
  6
CONTINUOUS
 62
     7
 10
171.0368
 20
45.89999
 40
0.5
 50
89.99999
 51
180.0
  0
ARC
  8
0
  6
CONTINUOUS
 62
     7
 10
184.8368
 20
45.89999
 40
0.5
 50
0.0
 51
89.99999
  0
CIRCLE
  8
0
  6
CONTINUOUS
 62
     7
 10
177.9368
 20
39.0
 40
2.8
  0
ARC
  8
0
  6
CONTINUOUS
 62
     7
 10
177.9368
 20
40.2728
 40
0.6
 50
224.9995
 51
315.0005
  0
ARC
  8
0
  6
CONTINUOUS
 62
     7
 10
176.664
 20
39.0
 40
0.6
 50
315.0005
 51
44.99949
  0
ARC
  8
0
  6
CONTINUOUS
 62
     7
 10
179.2096
 20
39.0
 40
0.6
 50
135.0005
 51
224.9995
  0
ARC
  8
0
  6
CONTINUOUS
 62
     7
 10
173.4368
 20
161.1
 40
3.0
 50
0.0
 51
89.99999
  0
ARC
  8
0
  6
CONTINUOUS
 62
     7
 10
182.4368
 20
179.1
 40
3.0
 50
180.0
 51
270.0
  0
ARC
  8
0
  6
CONTINUOUS
 62
     7
 10
173.4368
 20
161.1
 40
2.55
 50
186.7564
 51
173.2436
  0
ARC
  8
0
  6
CONTINUOUS
 62
     7
 10
182.4368
 20
179.1
 40
2.55
 50
6.75641
 51
353.2436
  0
CIRCLE
  8
0
  6
CONTINUOUS
 62
     7
 10
173.4368
 20
161.1
 40
2.25
  0
ARC
  8
0
  6
CONTINUOUS
 62
     7
 10
174.5399
 20
161.1
 40
0.51999
 50
135.0
 51
225.0
  0
ARC
  8
0
  6
CONTINUOUS
 62
     7
 10
173.4368
 20
162.2031
 40
0.51999
 50
225.0
 51
315.0
  0
ARC
  8
0
  6
CONTINUOUS
 62
     7
 10
173.4368
 20
159.9969
 40
0.51999
 50
45.0
 51
135.0
  0
ARC
  8
0
  6
CONTINUOUS
 62
     7
 10
172.3337
 20
161.1
 40
0.51999
 50
315.0
 51
45.0
  0
CIRCLE
  8
0
  6
CONTINUOUS
 62
     7
 10
182.4368
 20
179.1
 40
2.25
  0
ARC
  8
0
  6
CONTINUOUS
 62
     7
 10
183.5399
 20
179.1
 40
0.51999
 50
135.0
 51
225.0
  0
ARC
  8
0
  6
CONTINUOUS
 62
     7
 10
182.4368
 20
180.2031
 40
0.51999
 50
225.0
 51
315.0
  0
ARC
  8
0
  6
CONTINUOUS
 62
     7
 10
182.4368
 20
177.9969
 40
0.51999
 50
45.0
 51
135.0
  0
ARC
  8
0
  6
CONTINUOUS
 62
     7
 10
181.3337
 20
179.1
 40
0.51999
 50
315.0
 51
45.0
  0
ARC
  8
0
  6
CONTINUOUS
 62
     7
 10
184.9368
 20
181.6
 40
0.5
 50
0.0
 51
89.99999
  0
ARC
  8
0
  6
CONTINUOUS
 62
     7
 10
170.9368
 20
181.6
 40
0.5
 50
89.99999
 51
180.0
  0
CIRCLE
  8
0
  6
CONTINUOUS
 62
     7
 10
177.9368
 20
135.5
 40
7.4
  0
CIRCLE
  8
0
  6
CONTINUOUS
 62
     7
 10
177.9368
 20
135.5
 40
3.8
  0
CIRCLE
  8
0
  6
CONTINUOUS
 62
     7
 10
177.9368
 20
135.5
 40
5.8
  0
ARC
  8
0
  6
CONTINUOUS
 62
     7
 10
171.0368
 20
128.6
 40
0.5
 50
180.0
 51
270.0
  0
ARC
  8
0
  6
CONTINUOUS
 62
     7
 10
177.9368
 20
130.7
 40
5.0
 50
240.5077
 51
299.4923
  0
ARC
  8
0
  6
CONTINUOUS
 62
     7
 10
180.0701
 20
126.9282
 40
0.66667
 50
299.4919
 51
0.0
  0
ARC
  8
0
  6
CONTINUOUS
 62
     7
 10
175.8034
 20
126.9282
 40
0.66667
 50
180.0
 51
240.508
  0
ARC
  8
0
  6
CONTINUOUS
 62
     7
 10
184.8368
 20
128.6
 40
0.5
 50
270.0
 51
0.0
  0
ARC
  8
0
  6
CONTINUOUS
 62
     7
 10
22.9368
 20
-24.0
 40
0.5
 50
180.0
 51
270.0
  0
ARC
  8
0
  6
CONTINUOUS
 62
     7
 10
45.9368
 20
-24.0
 40
0.5
 50
270.0
 51
0.0
  0
ARC
  8
0
  6
CONTINUOUS
 62
     7
 10
40.73679
 20
-20.0
 40
0.5
 50
89.99999
 51
180.0
  0
ARC
  8
0
  6
CONTINUOUS
 62
     7
 10
39.73679
 20
-24.0
 40
0.5
 50
270.0
 51
0.0
  0
ARC
  8
0
  6
CONTINUOUS
 62
     7
 10
45.9368
 20
-19.0
 40
0.5
 50
270.0
 51
0.0
  0
ARC
  8
0
  6
CONTINUOUS
 62
     7
 10
43.4368
 20
-16.5
 40
5.0
 50
241.2644
 51
298.7356
  0
ARC
  8
0
  6
CONTINUOUS
 62
     7
 10
41.35349
 20
-20.29967
 40
0.66667
 50
180.0
 51
241.2645
  0
ARC
  8
0
  6
CONTINUOUS
 62
     7
 10
45.52011
 20
-20.29967
 40
0.66667
 50
298.7355
 51
0.0
  0
ARC
  8
0
  6
CONTINUOUS
 62
     7
 10
77.60861
 20
41.13333
 40
0.66667
 50
29.49223
 51
89.99999
  0
ARC
  8
0
  6
CONTINUOUS
 62
     7
 10
69.03677
 20
53.39838
 40
12.29748
 50
73.28473
 51
106.7153
  0
ARC
  8
0
  6
CONTINUOUS
 62
     7
 10
74.66714
 20
62.42261
 40
3.27324
 50
62.72881
 51
122.7273
  0
ARC
  8
0
  6
CONTINUOUS
 62
     7
 10
63.40646
 20
62.42258
 40
3.27327
 50
57.27274
 51
117.2729
  0
ARC
  8
0
  6
CONTINUOUS
 62
     7
 10
43.4368
 20
44.5
 40
6.0
 50
73.80869
 51
106.1913
  0
ARC
  8
0
  6
CONTINUOUS
 62
     7
 10
44.88681
 20
49.49374
 40
0.8
 50
0.0
 51
73.80872
  0
ARC
  8
0
  6
CONTINUOUS
 62
     7
 10
41.98679
 20
49.49374
 40
0.8
 50
106.1913
 51
180.0
  0
ARC
  8
0
  6
CONTINUOUS
 62
     7
 10
25.4368
 20
44.49997
 40
6.0
 50
73.80865
 51
106.1913
  0
ARC
  8
0
  6
CONTINUOUS
 62
     7
 10
23.98679
 20
49.49371
 40
0.8
 50
106.1914
 51
118.0138
  0
ARC
  8
0
  6
CONTINUOUS
 62
     7
 10
26.88681
 20
49.49371
 40
0.8
 50
61.98621
 51
73.80872
  0
ARC
  8
0
  6
CONTINUOUS
 62
     7
 10
75.9368
 20
32.10001
 40
0.5
 50
270.0
 51
0.0
  0
ARC
  8
0
  6
CONTINUOUS
 62
     7
 10
75.9368
 20
45.89999
 40
0.5
 50
0.0
 51
89.99999
  0
ARC
  8
0
  6
CONTINUOUS
 62
     7
 10
73.83682
 20
39.0
 40
5.0
 50
330.5076
 51
29.49236
  0
ARC
  8
0
  6
CONTINUOUS
 62
     7
 10
77.60861
 20
36.86667
 40
0.66667
 50
270.0
 51
330.5078
  0
ARC
  8
0
  6
CONTINUOUS
 62
     7
 10
331.9367
 20
-24.0
 40
0.5
 50
270.0
 51
0.0
  0
ARC
  8
0
  6
CONTINUOUS
 62
     7
 10
308.9367
 20
-24.0
 40
0.5
 50
180.0
 51
270.0
  0
ARC
  8
0
  6
CONTINUOUS
 62
     7
 10
326.7367
 20
-20.0
 40
0.5
 50
89.99999
 51
180.0
  0
ARC
  8
0
  6
CONTINUOUS
 62
     7
 10
325.7367
 20
-24.0
 40
0.5
 50
270.0
 51
0.0
  0
ARC
  8
0
  6
CONTINUOUS
 62
     7
 10
331.9367
 20
-19.0
 40
0.5
 50
270.0
 51
0.0
  0
ARC
  8
0
  6
CONTINUOUS
 62
     7
 10
329.4367
 20
-16.5
 40
5.0
 50
241.2644
 51
298.7356
  0
ARC
  8
0
  6
CONTINUOUS
 62
     7
 10
331.5201
 20
-20.29967
 40
0.66667
 50
298.7367
 51
0.0
  0
ARC
  8
0
  6
CONTINUOUS
 62
     7
 10
327.3534
 20
-20.29967
 40
0.66666
 50
180.0
 51
241.2633
  0
ARC
  8
0
  6
CONTINUOUS
 62
     7
 10
280.2064
 20
62.42261
 40
3.27324
 50
57.27263
 51
117.2712
  0
ARC
  8
0
  6
CONTINUOUS
 62
     7
 10
277.2649
 20
41.13333
 40
0.66667
 50
89.99999
 51
150.5081
  0
ARC
  8
0
  6
CONTINUOUS
 62
     7
 10
277.2649
 20
36.86667
 40
0.66668
 50
209.4919
 51
270.0
  0
ARC
  8
0
  6
CONTINUOUS
 62
     7
 10
285.8368
 20
53.39838
 40
12.29748
 50
73.2847
 51
106.7152
  0
ARC
  8
0
  6
CONTINUOUS
 62
     7
 10
291.4671
 20
62.42258
 40
3.27326
 50
62.72702
 51
122.7271
  0
ARC
  8
0
  6
CONTINUOUS
 62
     7
 10
329.4367
 20
44.5
 40
6.0
 50
73.80876
 51
106.1912
  0
ARC
  8
0
  6
CONTINUOUS
 62
     7
 10
330.8867
 20
49.49374
 40
0.79999
 50
0.0
 51
73.8082
  0
ARC
  8
0
  6
CONTINUOUS
 62
     7
 10
327.9867
 20
49.49374
 40
0.8
 50
106.1918
 51
180.0
  0
ARC
  8
0
  6
CONTINUOUS
 62
     7
 10
311.4367
 20
44.49997
 40
6.0
 50
73.80876
 51
106.1912
  0
ARC
  8
0
  6
CONTINUOUS
 62
     7
 10
309.9867
 20
49.49371
 40
0.8
 50
106.1918
 51
118.0148
  0
ARC
  8
0
  6
CONTINUOUS
 62
     7
 10
312.8867
 20
49.49371
 40
0.80001
 50
61.98524
 51
73.8082
  0
ARC
  8
0
  6
CONTINUOUS
 62
     7
 10
278.9367
 20
32.10001
 40
0.5
 50
180.0
 51
270.0
  0
ARC
  8
0
  6
CONTINUOUS
 62
     7
 10
278.9367
 20
45.89999
 40
0.5
 50
89.99999
 51
180.0
  0
ARC
  8
0
  6
CONTINUOUS
 62
     7
 10
278.9367
 20
32.10001
 40
0.5
 50
180.0
 51
270.0
  0
ARC
  8
0
  6
CONTINUOUS
 62
     7
 10
278.9367
 20
45.89999
 40
0.5
 50
89.99999
 51
180.0
  0
ARC
  8
0
  6
CONTINUOUS
 62
     7
 10
281.0367
 20
39.0
 40
5.00001
 50
150.5076
 51
209.4923
  0
ARC
  8
0
  6
CONTINUOUS
 62
     7
 10
173.4368
 20
-151.1
 40
3.2
 50
270.0
 51
0.0
  0
ARC
  8
0
  6
CONTINUOUS
 62
     7
 10
182.4368
 20
-169.1
 40
3.2
 50
89.99999
 51
180.0
  0
ARC
  8
0
  6
CONTINUOUS
 62
     7
 10
174.4905
 20
-159.3467
 40
0.35345
 50
0.0
 51
89.99999
  0
ARC
  8
0
  6
CONTINUOUS
 62
     7
 10
177.4066
 20
-161.2465
 40
0.35345
 50
270.0
 51
0.0
  0
ARC
  8
0
  6
CONTINUOUS
 62
     7
 10
177.2298
 20
-159.5234
 40
0.5302
 50
0.0
 51
89.99999
  0
ARC
  8
0
  6
CONTINUOUS
 62
     7
 10
180.4552
 20
-159.3467
 40
0.35345
 50
0.0
 51
89.99999
  0
ARC
  8
0
  6
CONTINUOUS
 62
     7
 10
180.4552
 20
-159.6291
 40
0.35346
 50
295.0008
 51
0.0
  0
ARC
  8
0
  6
CONTINUOUS
 62
     7
 10
183.1945
 20
-158.9932
 40
0.53019
 50
291.6884
 51
0.0
  0
ARC
  8
0
  6
CONTINUOUS
 62
     7
 10
183.0177
 20
-158.8733
 40
0.17672
 50
291.6875
 51
0.0
  0
ARC
  8
0
  6
CONTINUOUS
 62
     7
 10
170.9367
 20
-171.6
 40
0.5
 50
180.0
 51
270.0
  0
ARC
  8
0
  6
CONTINUOUS
 62
     7
 10
184.9367
 20
-171.6
 40
0.5
 50
270.0
 51
0.0
  0
CIRCLE
  8
0
  6
CONTINUOUS
 62
     7
 10
173.4368
 20
-151.1
 40
2.8
  0
ARC
  8
0
  6
CONTINUOUS
 62
     7
 10
172.164
 20
-151.1
 40
0.60001
 50
315.0
 51
45.0
  0
ARC
  8
0
  6
CONTINUOUS
 62
     7
 10
173.4368
 20
-152.3728
 40
0.60001
 50
45.0
 51
135.0
  0
ARC
  8
0
  6
CONTINUOUS
 62
     7
 10
173.4368
 20
-149.8272
 40
0.60001
 50
225.0
 51
315.0
  0
ARC
  8
0
  6
CONTINUOUS
 62
     7
 10
174.7096
 20
-151.1
 40
0.60001
 50
135.0
 51
225.0
  0
CIRCLE
  8
0
  6
CONTINUOUS
 62
     7
 10
182.4368
 20
-169.1
 40
2.8
  0
ARC
  8
0
  6
CONTINUOUS
 62
     7
 10
181.164
 20
-169.1
 40
0.60001
 50
315.0
 51
45.0
  0
ARC
  8
0
  6
CONTINUOUS
 62
     7
 10
182.4368
 20
-170.3728
 40
0.60001
 50
45.0
 51
135.0
  0
ARC
  8
0
  6
CONTINUOUS
 62
     7
 10
182.4368
 20
-167.8272
 40
0.60001
 50
225.0
 51
315.0
  0
ARC
  8
0
  6
CONTINUOUS
 62
     7
 10
183.7096
 20
-169.1
 40
0.60001
 50
135.0
 51
225.0
  0
ARC
  8
0
  6
CONTINUOUS
 62
     7
 10
171.0368
 20
-118.6
 40
0.5
 50
89.99999
 51
180.0
  0
ARC
  8
0
  6
CONTINUOUS
 62
     7
 10
184.8368
 20
-118.6
 40
0.5
 50
0.0
 51
89.99999
  0
ARC
  8
0
  6
CONTINUOUS
 62
     7
 10
177.9368
 20
-120.7
 40
5.0
 50
60.50768
 51
119.4923
  0
ARC
  8
0
  6
CONTINUOUS
 62
     7
 10
180.0701
 20
-116.9282
 40
0.66667
 50
0.0
 51
60.50805
  0
ARC
  8
0
  6
CONTINUOUS
 62
     7
 10
175.8034
 20
-116.9282
 40
0.66667
 50
119.4919
 51
180.0
  0
TEXT
  8
0
  6
CONTINUOUS
 62
     7
 10
-350.9787
 20
200.5946
 40
8.5
  1
MODEL : 111E1-39
 41
0.8
  7
STANDARD
  0
TEXT
  8
0
  6
CONTINUOUS
 62
     7
 10
229.0661
 20
236.2625
 40
8.5
  1
DATE : NOV ,1989
 41
0.8
  7
STANDARD
  0
TEXT
  8
0
  6
CONTINUOUS
 62
     7
 10
-370.6519
 20
235.5575
 40
10.0
  1
110 CONNECTOR -39
 41
0.73013
  7
STANDARD
  0
TEXT
  8
0
  6
CONTINUOUS
 62
     7
 10
19.88928
 20
200.5946
 40
8.5
  1
MODEL : A111E1-39
 41
0.8
  7
STANDARD
  0
TEXT
  8
0
  6
CONTINUOUS
 62
     7
 10
-313.2345
 20
-2.60956
 40
2.0
  1
R
 41
0.8
  7
STANDARD
  0
TEXT
  8
0
  6
CONTINUOUS
 62
     7
 10
-304.5658
 20
-13.38832
 40
2.0
  1
P
 41
0.8
  7
STANDARD
  0
TEXT
  8
0
  6
CONTINUOUS
 62
     7
 10
-50.11067
 20
-9.0012
 40
2.0
  1
A
 41
0.8
  7
STANDARD
  0
ENDSEC
  0
EOF
