  0
SECTION
  2
HEADER
  0
ENDSEC
  0
SECTION
  2
TABLES
  0
TABLE
  2
LTYPE
 70
     4
  0
LTYPE
  2
CONTINUOUS
 70
    64
  3
Solid line
 72
    65
 73
     0
 40
0.000000
  0
LTYPE
  2
DASHED
 70
    64
  3
__ __ __ __ __ __ __ __ __ __ __ __ __ __ __
 72
    65
 73
     2
 40
3.500000
 49
2.000000
 49
-1.500000
  0
LTYPE
  2
CENTER
 70
    64
  3
____ _ ____ _ ____ _ ____ _ ____ _ ____ _ ____
 72
    65
 73
     4
 40
17.500000
 49
13.000000
 49
-1.500000
 49
1.500000
 49
-1.500000
  0
LTYPE
  2
PHANTOM
 70
    64
  3
_____ _ _ _____ _ _ _____ _ _ _____ _ _ ____  
 72
    65
 73
     6
 40
15.500000
 49
8.000000
 49
-1.500000
 49
1.500000
 49
-1.500000
 49
1.500000
 49
-1.500000
  0
LTYPE
  2
DASHED1
 70
    64
  3
__ __ __ __ __ __ __ __ __ __ __ __ __ __ __
 72
    65
 73
     2
 40
1.500000
 49
1.000000
 49
-0.500000
  0
LTYPE
  2
DASHED2
 70
    64
  3
__ __ __ __ __ __ __ __ __ __ __ __ __ __ __
 72
    65
 73
     2
 40
3.500000
 49
2.500000
 49
-1.000000
  0
LTYPE
  2
DASHED3
 70
    64
  3
__ __ __ __ __ __ __ __ __ __ __ __ __ __ __
 72
    65
 73
     2
 40
6.000000
 49
4.000000
 49
-2.000000
  0
LTYPE
  2
DASHED4
 70
    64
  3
__ __ __ __ __ __ __ __ __ __ __ __ __ __ __
 72
    65
 73
     2
 40
12.000000
 49
10.000000
 49
-2.000000
  0
LTYPE
  2
DASHED5
 70
    64
  3
__ __ __ __ __ __ __ __ __ __ __ __ __ __ __
 72
    65
 73
     2
 40
17.000000
 49
15.000000
 49
-2.000000
  0
LTYPE
  2
DASHED6
 70
    64
  3
__ __ __ __ __ __ __ __ __ __ __ __ __ __ __
 72
    65
 73
     2
 40
29.000000
 49
27.000000
 49
-2.000000
  0
LTYPE
  2
PHANTOM1
 70
    64
  3
_____ _ _ _____ _ _ _____ _ _ _____ _ _ ____  
 72
    65
 73
     6
 40
31.000000
 49
25.000000
 49
-1.500000
 49
1.000000
 49
-1.000000
 49
1.000000
 49
-1.500000
  0
LTYPE
  2
PHANTOM2
 70
    64
  3
_____ _ _ _____ _ _ _____ _ _ _____ _ _ ____  
 72
    65
 73
     6
 40
36.000000
 49
27.000000
 49
-1.500000
 49
2.500000
 49
-1.000000
 49
2.500000
 49
-1.500000
  0
LTYPE
  2
PHANTOM3
 70
    64
  3
_____ _ _ _____ _ _ _____ _ _ _____ _ _ ____  
 72
    65
 73
     6
 40
78.000000
 49
64.000000
 49
-2.000000
 49
4.000000
 49
-2.000000
 49
4.000000
 49
-2.000000
  0
LTYPE
  2
CENTER1
 70
    64
  3
____ _ ____ _ ____ _ ____ _ ____ _ ____ _ ____
 72
    65
 73
     4
 40
19.000000
 49
14.000000
 49
-1.000000
 49
3.000000
 49
-1.000000
  0
LTYPE
  2
CENTER2
 70
    64
  3
____ _ ____ _ ____ _ ____ _ ____ _ ____ _ ____
 72
    65
 73
     4
 40
28.500000
 49
25.000000
 49
-1.000000
 49
1.500000
 49
-1.000000
  0
LTYPE
  2
CENTER3
 70
    64
  3
____ _ ____ _ ____ _ ____ _ ____ _ ____ _ ____
 72
    65
 73
     4
 40
31.500000
 49
27.000000
 49
-1.000000
 49
2.500000
 49
-1.000000
  0
LTYPE
  2
CENTER4
 70
    64
  3
____ _ ____ _ ____ _ ____ _ ____ _ ____ _ ____
 72
    65
 73
     4
 40
50.000000
 49
45.000000
 49
-1.000000
 49
3.000000
 49
-1.000000
  0
LTYPE
  2
CENTER5
 70
    64
  3
____ _ ____ _ ____ _ ____ _ ____ _ ____ _ ____
 72
    65
 73
     4
 40
100.000000
 49
92.000000
 49
-2.000000
 49
4.000000
 49
-2.000000
  0
LTYPE
  2
SBK1
 70
    64
  3
______ _ _ _ ______ _ _ _ ______ _ _ _ _____  
 72
    65
 73
     8
 40
60.500000
 49
45.000000
 49
-2.000000
 49
2.500000
 49
-2.000000
 49
2.500000
 49
-2.000000
 49
2.500000
 49
-2.000000
  0
LTYPE
  2
SBK2
 70
    64
  3
______ _ _ _ ______ _ _ _ ______ _ _ _ _____  
 72
    65
 73
     8
 40
84.000000
 49
64.000000
 49
-2.000000
 49
4.000000
 49
-2.000000
 49
4.000000
 49
-2.000000
 49
4.000000
 49
-2.000000
  0
LTYPE
  2
STCH
 70
    64
  3
__ __ __ __ __ __ __ __ __ __ __ __ __ __ __
 72
    65
 73
     2
 40
3.000000
 49
1.000000
 49
-2.000000
  0
LTYPE
  2
MTCH
 70
    64
  3
_____ _ _ _____ _ _ _____ _ _ _____ _ _ ____  
 72
    65
 73
     6
 40
80.000000
 49
66.000000
 49
-2.000000
 49
4.000000
 49
-2.000000
 49
4.000000
 49
-2.000000
  0
ENDTAB
  0
TABLE
  2
LAYER
 70
     1
  0
LAYER
  2
0
 70
     0
 62
     7
  6
CONTINUOUS
  0
ENDTAB
  0
TABLE
  2
STYLE
 70
     1
  0
STYLE
  2
STANDARD
 70
     0
 40
0.000000
 41
1.000000
 50
0.000000
 71
     0
 42
0.200000
  3
txt
  4
BIGFONT
  0
ENDTAB
  0
TABLE
  2
VIEW
 70
     0
  0
ENDTAB
  0
ENDSEC
  0
SECTION
  2
BLOCKS
  0
ENDSEC
  0
SECTION
  2
ENTITIES
  0
LINE
  8
0
 10
203.812378
 20
109.351349
 11
176.812378
 21
109.351349
  0
LINE
  8
0
 10
203.812378
 20
150.351349
 11
176.812378
 21
150.351349
  0
LINE
  8
0
 10
203.812378
 20
104.351341
 11
176.812378
 21
104.351341
  0
LINE
  8
0
 10
203.812378
 20
152.351349
 11
176.812378
 21
152.351349
  0
LINE
  8
0
 10
203.812378
 20
189.351334
 11
176.812378
 21
189.351334
  0
LINE
  8
0
 10
203.012375
 20
194.651337
 11
177.612381
 21
194.651337
  0
LINE
  8
0
 10
176.812378
 20
193.851334
 11
176.812378
 21
104.351341
  0
LINE
  8
0
 10
203.812378
 20
193.851334
 11
203.812378
 21
104.351341
  0
LINE
  8
0
 10
214.312378
 20
185.551331
 11
214.312378
 21
156.651337
  0
LINE
  8
0
 10
215.812378
 20
173.851349
 11
214.312378
 21
173.851349
  0
LINE
  8
0
 10
215.812378
 20
180.851334
 11
214.312378
 21
180.851334
  0
LINE
  8
0
 10
215.812378
 20
180.851334
 11
215.812378
 21
173.851349
  0
LINE
  8
0
 10
96.812378
 20
193.851334
 11
96.812378
 21
105.151337
  0
LINE
  8
0
 10
69.812378
 20
193.851334
 11
69.812378
 21
105.151337
  0
LINE
  8
0
 10
88.788208
 20
124.851349
 11
97.508240
 21
124.851349
  0
LINE
  8
0
 10
68.583191
 20
134.851349
 11
77.622253
 21
134.851349
  0
LINE
  8
0
 10
93.812378
 20
130.179657
 11
93.812378
 21
119.545441
  0
LINE
  8
0
 10
72.812378
 20
139.537766
 11
72.812378
 21
129.541611
  0
LINE
  8
0
 10
69.812378
 20
189.351334
 11
96.812378
 21
189.351334
  0
LINE
  8
0
 10
69.812378
 20
152.351349
 11
96.812378
 21
152.351349
  0
LINE
  8
0
 10
70.612366
 20
194.651337
 11
96.012390
 21
194.651337
  0
LINE
  8
0
 10
83.312378
 20
197.489929
 11
83.312378
 21
100.251343
  0
LINE
  8
0
 10
69.812378
 20
109.351349
 11
96.812378
 21
109.351349
  0
LINE
  8
0
 10
70.612366
 20
104.351341
 11
96.012390
 21
104.351341
  0
LINE
  8
0
 10
69.812378
 20
150.351349
 11
96.812378
 21
150.351349
  0
LINE
  8
0
 10
203.812378
 20
31.851349
 11
203.812378
 21
57.251343
  0
LINE
  8
0
 10
203.012390
 20
31.051346
 11
177.612366
 21
31.051346
  0
LINE
  8
0
 10
203.012390
 20
58.051346
 11
177.612366
 21
58.051346
  0
LINE
  8
0
 10
205.531860
 20
44.551346
 11
174.894043
 21
44.551346
  0
LINE
  8
0
 10
202.327072
 20
35.551346
 11
196.109772
 21
35.551346
  0
LINE
  8
0
 10
184.380234
 20
53.551346
 11
178.227020
 21
53.551346
  0
LINE
  8
0
 10
199.312378
 20
32.758514
 11
199.312378
 21
38.527130
  0
LINE
  8
0
 10
181.312378
 20
50.320763
 11
181.312378
 21
57.251343
  0
LINE
  8
0
 10
176.812378
 20
31.851341
 11
176.812378
 21
57.251343
  0
LINE
  8
0
 10
190.312378
 20
197.112091
 11
190.312378
 21
96.853714
  0
LINE
  8
0
 10
289.812378
 20
193.851334
 11
289.812378
 21
105.151337
  0
LINE
  8
0
 10
316.812378
 20
193.851334
 11
316.812378
 21
105.151337
  0
LINE
  8
0
 10
295.832794
 20
124.851349
 11
289.859039
 21
124.851349
  0
LINE
  8
0
 10
316.765442
 20
134.851349
 11
310.489838
 21
134.851349
  0
LINE
  8
0
 10
292.812378
 20
128.259033
 11
292.812378
 21
121.719742
  0
LINE
  8
0
 10
313.812378
 20
138.293488
 11
313.812378
 21
131.528687
  0
LINE
  8
0
 10
316.812378
 20
189.351334
 11
289.812378
 21
189.351334
  0
LINE
  8
0
 10
316.812378
 20
152.351349
 11
289.812378
 21
152.351349
  0
LINE
  8
0
 10
316.012390
 20
194.651337
 11
290.612366
 21
194.651337
  0
LINE
  8
0
 10
303.312378
 20
196.667969
 11
303.312378
 21
100.957085
  0
LINE
  8
0
 10
316.812378
 20
109.351349
 11
289.812378
 21
109.351349
  0
LINE
  8
0
 10
316.012390
 20
104.351341
 11
290.612366
 21
104.351341
  0
LINE
  8
0
 10
316.812378
 20
150.351349
 11
289.812378
 21
150.351349
  0
LINE
  8
0
 10
213.512375
 20
155.851349
 11
205.312378
 21
155.851349
  0
LINE
  8
0
 10
213.512375
 20
186.351334
 11
205.312378
 21
186.351334
  0
LINE
  8
0
 10
214.312378
 20
35.051346
 11
214.312378
 21
54.051346
  0
LINE
  8
0
 10
212.812378
 20
55.551346
 11
205.312378
 21
55.551346
  0
LINE
  8
0
 10
212.812378
 20
33.551346
 11
205.312378
 21
33.551346
  0
LINE
  8
0
 10
305.312378
 20
180.851349
 11
301.312378
 21
180.851349
  0
LINE
  8
0
 10
305.312378
 20
173.851349
 11
301.312378
 21
173.851349
  0
LINE
  8
0
 10
215.812378
 20
39.051346
 11
215.812378
 21
50.051346
  0
LINE
  8
0
 10
235.616348
 20
42.051353
 11
230.616348
 21
42.051353
  0
LINE
  8
0
 10
235.616348
 20
43.051346
 11
230.616348
 21
43.051346
  0
LINE
  8
0
 10
230.616348
 20
43.551346
 11
230.616348
 21
41.551353
  0
LINE
  8
0
 10
235.616348
 20
43.051346
 11
235.616348
 21
42.051353
  0
LINE
  8
0
 10
230.616348
 20
41.551353
 11
215.812378
 21
41.551353
  0
LINE
  8
0
 10
230.616348
 20
43.551346
 11
215.812378
 21
43.551346
  0
LINE
  8
0
 10
235.616348
 20
176.851349
 11
230.616348
 21
176.851349
  0
LINE
  8
0
 10
235.616348
 20
177.851334
 11
230.616348
 21
177.851334
  0
LINE
  8
0
 10
230.616348
 20
178.351334
 11
230.616348
 21
176.351349
  0
LINE
  8
0
 10
235.616348
 20
177.851334
 11
235.616348
 21
176.851349
  0
LINE
  8
0
 10
230.616348
 20
176.351349
 11
215.812378
 21
176.351349
  0
LINE
  8
0
 10
230.616348
 20
178.351334
 11
215.812378
 21
178.351334
  0
LINE
  8
0
 10
235.616348
 20
46.051353
 11
230.616348
 21
46.051353
  0
LINE
  8
0
 10
235.616348
 20
47.051346
 11
230.616348
 21
47.051346
  0
LINE
  8
0
 10
230.616348
 20
47.551346
 11
230.616348
 21
45.551353
  0
LINE
  8
0
 10
235.616348
 20
47.051346
 11
235.616348
 21
46.051353
  0
LINE
  8
0
 10
230.616348
 20
45.551353
 11
215.812378
 21
45.551353
  0
LINE
  8
0
 10
230.616348
 20
47.551346
 11
215.812378
 21
47.551346
  0
LINE
  8
0
 10
215.812378
 20
50.051346
 11
214.312378
 21
50.051346
  0
LINE
  8
0
 10
215.812378
 20
39.051346
 11
214.312378
 21
39.051346
  0
LINE
  8
0
  6
PHANTOM
 10
59.312378
 20
98.351341
 11
67.312378
 21
98.351341
  0
LINE
  8
0
  6
PHANTOM
 10
71.312378
 20
102.351341
 11
95.312378
 21
102.351341
  0
LINE
  8
0
  6
PHANTOM
 10
59.312378
 20
100.351341
 11
67.312378
 21
100.351341
  0
LINE
  8
0
  6
PHANTOM
 10
59.312378
 20
100.351341
 11
59.312378
 21
98.351341
  0
LINE
  8
0
  6
PHANTOM
 10
107.312378
 20
100.351341
 11
107.312378
 21
98.351341
  0
LINE
  8
0
  6
PHANTOM
 10
99.312378
 20
100.351341
 11
107.312378
 21
100.351341
  0
LINE
  8
0
  6
PHANTOM
 10
99.312378
 20
98.351341
 11
107.312378
 21
98.351341
  0
LINE
  8
0
  6
PHANTOM
 10
203.312378
 20
104.351341
 11
203.312378
 21
98.351341
  0
LINE
  8
0
  6
PHANTOM
 10
203.312378
 20
102.351341
 11
177.312378
 21
102.351341
  0
LINE
  8
0
  6
PHANTOM
 10
203.312378
 20
100.351341
 11
177.312378
 21
100.351341
  0
LINE
  8
0
  6
PHANTOM
 10
197.312378
 20
100.351341
 11
197.312378
 21
98.351341
  0
LINE
  8
0
  6
PHANTOM
 10
203.312378
 20
98.351341
 11
177.312378
 21
98.351341
  0
LINE
  8
0
  6
PHANTOM
 10
183.312378
 20
100.351341
 11
183.312378
 21
98.351341
  0
LINE
  8
0
  6
PHANTOM
 10
177.312378
 20
104.351341
 11
177.312378
 21
98.351341
  0
LINE
  8
0
  6
PHANTOM
 10
203.312424
 20
62.551376
 11
197.312424
 21
68.551376
  0
LINE
  8
0
  6
PHANTOM
 10
197.312378
 20
68.551346
 11
183.312378
 21
68.551346
  0
LINE
  8
0
  6
PHANTOM
 10
183.312363
 20
68.551392
 11
177.312363
 21
62.551388
  0
LINE
  8
0
 10
190.312378
 20
69.486023
 11
190.312378
 21
19.618126
  0
LINE
  8
0
  6
PHANTOM
 10
194.130432
 20
64.551346
 11
186.616013
 21
64.551346
  0
LINE
  8
0
  6
PHANTOM
 10
192.562378
 20
64.551346
 11
192.562378
 21
63.551346
  0
LINE
  8
0
  6
PHANTOM
 10
194.130432
 20
63.551346
 11
186.476852
 21
63.551346
  0
LINE
  8
0
  6
PHANTOM
 10
188.062378
 20
64.551346
 11
188.062378
 21
63.551346
  0
LINE
  8
0
  6
PHANTOM
 10
203.312378
 20
26.551346
 11
203.312378
 21
62.551346
  0
LINE
  8
0
  6
PHANTOM
 10
201.783997
 20
59.551346
 11
178.892868
 21
59.551346
  0
LINE
  8
0
  6
PHANTOM
 10
177.312378
 20
26.551346
 11
177.312378
 21
62.551346
  0
LINE
  8
0
  6
PHANTOM
 10
201.714417
 20
29.551346
 11
179.032013
 21
29.551346
  0
LINE
  8
0
  6
PHANTOM
 10
177.312302
 20
26.551281
 11
183.312302
 21
20.551291
  0
LINE
  8
0
  6
PHANTOM
 10
197.312378
 20
20.551346
 11
183.312378
 21
20.551346
  0
LINE
  8
0
  6
PHANTOM
 10
197.312393
 20
20.551268
 11
203.312408
 21
26.551271
  0
LINE
  8
0
  6
PHANTOM
 10
194.130432
 20
25.551346
 11
186.476852
 21
25.551346
  0
LINE
  8
0
  6
PHANTOM
 10
194.130432
 20
24.551346
 11
186.616013
 21
24.551346
  0
LINE
  8
0
  6
PHANTOM
 10
188.062378
 20
24.551346
 11
188.062378
 21
25.551346
  0
LINE
  8
0
  6
PHANTOM
 10
192.562378
 20
24.551346
 11
192.562378
 21
25.551346
  0
LINE
  8
0
 10
216.618561
 20
44.551346
 11
174.789612
 21
44.551346
  0
LINE
  8
0
  6
PHANTOM
 10
279.312378
 20
98.351341
 11
287.312378
 21
98.351341
  0
LINE
  8
0
  6
PHANTOM
 10
291.312378
 20
102.351341
 11
315.312378
 21
102.351341
  0
LINE
  8
0
  6
PHANTOM
 10
279.312378
 20
100.351341
 11
287.312378
 21
100.351341
  0
LINE
  8
0
  6
PHANTOM
 10
279.312378
 20
100.351341
 11
279.312378
 21
98.351341
  0
LINE
  8
0
  6
PHANTOM
 10
327.312378
 20
100.351341
 11
327.312378
 21
98.351341
  0
LINE
  8
0
  6
PHANTOM
 10
319.312378
 20
100.351341
 11
327.312378
 21
100.351341
  0
LINE
  8
0
  6
PHANTOM
 10
319.312378
 20
98.351341
 11
327.312378
 21
98.351341
  0
LINE
  8
0
 10
217.532990
 20
144.351349
 11
201.851669
 21
144.351349
  0
LINE
  8
0
  6
PHANTOM
 10
215.812378
 20
149.235321
 11
215.812378
 21
139.467361
  0
LINE
  8
0
  6
PHANTOM
 10
206.812378
 20
149.251343
 11
206.812378
 21
139.451340
  0
LINE
  8
0
  6
PHANTOM
 10
209.812378
 20
149.235321
 11
209.812378
 21
139.467377
  0
LINE
  8
0
  6
PHANTOM
 10
215.312378
 20
150.101349
 11
210.312378
 21
150.101349
  0
LINE
  8
0
  6
PHANTOM
 10
215.312378
 20
138.601349
 11
210.312378
 21
138.601349
  0
LINE
  8
0
  6
PHANTOM
 10
209.812378
 20
149.251343
 11
206.812378
 21
149.251343
  0
LINE
  8
0
  6
PHANTOM
 10
209.812378
 20
139.451340
 11
206.812378
 21
139.451340
  0
LINE
  8
0
  6
PHANTOM
 10
206.812363
 20
149.251343
 11
203.812363
 21
148.988876
  0
LINE
  8
0
  6
PHANTOM
 10
206.812363
 20
139.451340
 11
203.812378
 21
139.713806
  0
LINE
  8
0
  6
PHANTOM
 10
206.899536
 20
148.255188
 11
203.812393
 21
147.985107
  0
LINE
  8
0
  6
PHANTOM
 10
206.899536
 20
140.447525
 11
203.812363
 21
140.717621
  0
LINE
  8
0
  6
PHANTOM
 10
215.812378
 20
147.351349
 11
209.812378
 21
147.351349
  0
LINE
  8
0
  6
PHANTOM
 10
215.812378
 20
141.351349
 11
209.812378
 21
141.351349
  0
LINE
  8
0
 10
210.312347
 20
150.101364
 11
209.812347
 21
149.235336
  0
LINE
  8
0
 10
210.312363
 20
138.601303
 11
209.812363
 21
139.467331
  0
LINE
  8
0
 10
215.312347
 20
150.101303
 11
215.812347
 21
149.235275
  0
LINE
  8
0
 10
215.312347
 20
138.601349
 11
215.812347
 21
139.467361
  0
LINE
  8
0
 10
309.596954
 20
115.351349
 11
296.929321
 21
115.351349
  0
LINE
  8
0
 10
309.596954
 20
129.851349
 11
296.929321
 21
129.851349
  0
LINE
  8
0
 10
309.596954
 20
144.351349
 11
296.929321
 21
144.351349
  0
LINE
  8
0
 10
77.439941
 20
121.351349
 11
89.094910
 21
121.351349
  0
LINE
  8
0
 10
77.334930
 20
138.551346
 11
88.989929
 21
138.551346
  0
LINE
  8
0
 10
217.532990
 20
115.351349
 11
201.851669
 21
115.351349
  0
LINE
  8
0
  6
PHANTOM
 10
215.812378
 20
120.235321
 11
215.812378
 21
110.467361
  0
LINE
  8
0
  6
PHANTOM
 10
206.812378
 20
120.251343
 11
206.812378
 21
110.451340
  0
LINE
  8
0
  6
PHANTOM
 10
209.812378
 20
120.235321
 11
209.812378
 21
110.467377
  0
LINE
  8
0
  6
PHANTOM
 10
215.312378
 20
121.101349
 11
210.312378
 21
121.101349
  0
LINE
  8
0
  6
PHANTOM
 10
215.312378
 20
109.601349
 11
210.312378
 21
109.601349
  0
LINE
  8
0
  6
PHANTOM
 10
209.812378
 20
120.251343
 11
206.812378
 21
120.251343
  0
LINE
  8
0
  6
PHANTOM
 10
209.812378
 20
110.451340
 11
206.812378
 21
110.451340
  0
LINE
  8
0
  6
PHANTOM
 10
206.812393
 20
120.251366
 11
203.812393
 21
119.988914
  0
LINE
  8
0
  6
PHANTOM
 10
206.812363
 20
110.451340
 11
203.812363
 21
110.713806
  0
LINE
  8
0
  6
PHANTOM
 10
206.899521
 20
119.255150
 11
203.812378
 21
118.985069
  0
LINE
  8
0
  6
PHANTOM
 10
206.899536
 20
111.447548
 11
203.812363
 21
111.717628
  0
LINE
  8
0
  6
PHANTOM
 10
215.812378
 20
118.351349
 11
209.812378
 21
118.351349
  0
LINE
  8
0
  6
PHANTOM
 10
215.812378
 20
112.351349
 11
209.812378
 21
112.351349
  0
LINE
  8
0
 10
210.312347
 20
121.101372
 11
209.812347
 21
120.235336
  0
LINE
  8
0
 10
210.312363
 20
109.601318
 11
209.812363
 21
110.467346
  0
LINE
  8
0
 10
215.312363
 20
121.101295
 11
215.812363
 21
120.235268
  0
LINE
  8
0
 10
215.312332
 20
109.601349
 11
215.812332
 21
110.467354
  0
LINE
  8
0
 10
247.570175
 20
144.351349
 11
224.185898
 21
144.351349
  0
LINE
  8
0
  6
PHANTOM
 10
244.812378
 20
149.351349
 11
244.812378
 21
139.351349
  0
LINE
  8
0
  6
PHANTOM
 10
244.379364
 20
150.101349
 11
242.842499
 21
150.101349
  0
LINE
  8
0
  6
PHANTOM
 10
244.379364
 20
138.601349
 11
242.812378
 21
138.601349
  0
LINE
  8
0
  6
PHANTOM
 10
229.812378
 20
149.351349
 11
229.812378
 21
139.351334
  0
LINE
  8
0
  6
PHANTOM
 10
229.812378
 20
149.351273
 11
225.812393
 21
149.141632
  0
LINE
  8
0
  6
PHANTOM
 10
229.812408
 20
148.351349
 11
225.812408
 21
148.141724
  0
LINE
  8
0
  6
PHANTOM
 10
244.812439
 20
149.351395
 11
244.379425
 21
150.101395
  0
LINE
  8
0
  6
PHANTOM
 10
244.812424
 20
139.351379
 11
244.379395
 21
138.601379
  0
LINE
  8
0
  6
PHANTOM
 10
229.812439
 20
139.351395
 11
230.245453
 21
138.601395
  0
LINE
  8
0
  6
PHANTOM
 10
229.812408
 20
149.351364
 11
230.245422
 21
150.101364
  0
LINE
  8
0
  6
PHANTOM
 10
229.812393
 20
139.351303
 11
225.812408
 21
139.560944
  0
LINE
  8
0
  6
PHANTOM
 10
229.812408
 20
140.351364
 11
225.812393
 21
140.560989
  0
LINE
  8
0
  6
PHANTOM
 10
244.379364
 20
147.238098
 11
242.812378
 21
147.238098
  0
LINE
  8
0
  6
PHANTOM
 10
244.379364
 20
141.464600
 11
242.812378
 21
141.464600
  0
LINE
  8
0
 10
232.312378
 20
146.854187
 11
232.312378
 21
141.814178
  0
LINE
  8
0
  6
PHANTOM
 10
246.812378
 20
147.851349
 11
246.812378
 21
144.851349
  0
LINE
  8
0
  6
PHANTOM
 10
246.312378
 20
148.351349
 11
244.812378
 21
148.351349
  0
LINE
  8
0
  6
PHANTOM
 10
246.312378
 20
140.351349
 11
244.812378
 21
140.351349
  0
LINE
  8
0
  6
PHANTOM
 10
246.812378
 20
147.651337
 11
244.812378
 21
147.651337
  0
LINE
  8
0
  6
PHANTOM
 10
246.812378
 20
141.051346
 11
244.812378
 21
141.051346
  0
LINE
  8
0
  6
PHANTOM
 10
246.812378
 20
144.851349
 11
244.812378
 21
144.851349
  0
LINE
  8
0
  6
PHANTOM
 10
246.812378
 20
143.851349
 11
244.812378
 21
143.851349
  0
LINE
  8
0
  6
PHANTOM
 10
246.812378
 20
143.851349
 11
246.812378
 21
140.851349
  0
LINE
  8
0
  6
PHANTOM
 10
246.312378
 20
148.351349
 11
246.312378
 21
144.851349
  0
LINE
  8
0
  6
PHANTOM
 10
246.312378
 20
143.851349
 11
246.312378
 21
140.351349
  0
LINE
  8
0
  6
PHANTOM
 10
246.812393
 20
147.851364
 11
246.312378
 21
148.351364
  0
LINE
  8
0
  6
PHANTOM
 10
246.812363
 20
140.851318
 11
246.312378
 21
140.351334
  0
LINE
  8
0
  6
PHANTOM
 10
242.812378
 20
150.101349
 11
242.812378
 21
138.601349
  0
LINE
  8
0
  6
PHANTOM
 10
242.812393
 20
139.351364
 11
242.379364
 21
138.601318
  0
LINE
  8
0
  6
PHANTOM
 10
242.812439
 20
149.351395
 11
242.379425
 21
150.101395
  0
LINE
  8
0
  6
PHANTOM
 10
242.379364
 20
150.101349
 11
230.245407
 21
150.101349
  0
LINE
  8
0
  6
PHANTOM
 10
242.379364
 20
138.601349
 11
230.245392
 21
138.601349
  0
LINE
  8
0
  6
PHANTOM
 10
242.379364
 20
147.238098
 11
230.245392
 21
147.238098
  0
LINE
  8
0
  6
PHANTOM
 10
242.379364
 20
141.464600
 11
230.245392
 21
141.464600
  0
LINE
  8
0
 10
225.812378
 20
150.143707
 11
225.812378
 21
138.448135
  0
LINE
  8
0
 10
247.570175
 20
115.351334
 11
224.185898
 21
115.351334
  0
LINE
  8
0
  6
PHANTOM
 10
244.812378
 20
120.351334
 11
244.812378
 21
110.351349
  0
LINE
  8
0
  6
PHANTOM
 10
244.379364
 20
121.101334
 11
242.842499
 21
121.101334
  0
LINE
  8
0
  6
PHANTOM
 10
244.379364
 20
109.601334
 11
242.812378
 21
109.601334
  0
LINE
  8
0
  6
PHANTOM
 10
229.812378
 20
120.351334
 11
229.812378
 21
110.351334
  0
LINE
  8
0
  6
PHANTOM
 10
229.812408
 20
120.351357
 11
225.812408
 21
120.141731
  0
LINE
  8
0
  6
PHANTOM
 10
229.812393
 20
119.351334
 11
225.812393
 21
119.141693
  0
LINE
  8
0
 10
244.812454
 20
120.351372
 11
244.379440
 21
121.101372
  0
LINE
  8
0
 10
244.812454
 20
110.351341
 11
244.379440
 21
109.601341
  0
LINE
  8
0
  6
PHANTOM
 10
229.812363
 20
110.351341
 11
230.245377
 21
109.601326
  0
LINE
  8
0
  6
PHANTOM
 10
229.812424
 20
120.351357
 11
230.245438
 21
121.101357
  0
LINE
  8
0
  6
PHANTOM
 10
229.812408
 20
110.351326
 11
225.812408
 21
110.560966
  0
LINE
  8
0
  6
PHANTOM
 10
229.812408
 20
111.351334
 11
225.812408
 21
111.560966
  0
LINE
  8
0
  6
PHANTOM
 10
244.379364
 20
118.238083
 11
242.812378
 21
118.238083
  0
LINE
  8
0
  6
PHANTOM
 10
244.379364
 20
112.464584
 11
242.812378
 21
112.464584
  0
LINE
  8
0
 10
232.312378
 20
117.854187
 11
232.312378
 21
112.814178
  0
LINE
  8
0
  6
PHANTOM
 10
246.812378
 20
118.851334
 11
246.812378
 21
115.851334
  0
LINE
  8
0
  6
PHANTOM
 10
246.312378
 20
119.351334
 11
244.812378
 21
119.351334
  0
LINE
  8
0
  6
PHANTOM
 10
246.312378
 20
111.351334
 11
244.812378
 21
111.351334
  0
LINE
  8
0
  6
PHANTOM
 10
246.812378
 20
118.651337
 11
244.812378
 21
118.651337
  0
LINE
  8
0
  6
PHANTOM
 10
246.812378
 20
112.051331
 11
244.812378
 21
112.051331
  0
LINE
  8
0
  6
PHANTOM
 10
246.812378
 20
115.851334
 11
244.812378
 21
115.851334
  0
LINE
  8
0
  6
PHANTOM
 10
246.812378
 20
114.851334
 11
244.812378
 21
114.851334
  0
LINE
  8
0
  6
PHANTOM
 10
246.812378
 20
114.851334
 11
246.812378
 21
111.851334
  0
LINE
  8
0
  6
PHANTOM
 10
246.312378
 20
119.351334
 11
246.312378
 21
115.851334
  0
LINE
  8
0
  6
PHANTOM
 10
246.312378
 20
114.851334
 11
246.312378
 21
111.351334
  0
LINE
  8
0
 10
246.812408
 20
118.851395
 11
246.312408
 21
119.351395
  0
LINE
  8
0
 10
246.812363
 20
111.851341
 11
246.312378
 21
111.351349
  0
LINE
  8
0
  6
PHANTOM
 10
242.812378
 20
121.101334
 11
242.812378
 21
109.601334
  0
LINE
  8
0
 10
242.812408
 20
110.351349
 11
242.379395
 21
109.601341
  0
LINE
  8
0
 10
242.812454
 20
120.351372
 11
242.379440
 21
121.101372
  0
LINE
  8
0
  6
PHANTOM
 10
242.379364
 20
121.101334
 11
230.245407
 21
121.101334
  0
LINE
  8
0
  6
PHANTOM
 10
242.379364
 20
109.601334
 11
230.245392
 21
109.601334
  0
LINE
  8
0
  6
PHANTOM
 10
242.379364
 20
118.238083
 11
230.245392
 21
118.238083
  0
LINE
  8
0
  6
PHANTOM
 10
242.379364
 20
112.464584
 11
230.245392
 21
112.464584
  0
LINE
  8
0
 10
225.812378
 20
121.143707
 11
225.812378
 21
109.448135
  0
LINE
  8
0
 10
202.131821
 20
122.851349
 11
196.597549
 21
122.851349
  0
LINE
  8
0
 10
201.829956
 20
137.251343
 11
196.698166
 21
137.251343
  0
LINE
  8
0
 10
199.312378
 20
140.058304
 11
199.312378
 21
134.524017
  0
LINE
  8
0
 10
199.312378
 20
125.467926
 11
199.312378
 21
120.336151
  0
LINE
  8
0
 10
291.312378
 20
187.351334
 11
315.312378
 21
187.351334
  0
LINE
  8
0
 10
291.312378
 20
187.351334
 11
291.312378
 21
154.851349
  0
LINE
  8
0
 10
315.312378
 20
187.351334
 11
315.312378
 21
154.851349
  0
LINE
  8
0
 10
291.312378
 20
154.851349
 11
315.312378
 21
154.851349
  0
LINE
  8
0
 10
205.312378
 20
187.351334
 11
203.812378
 21
187.351334
  0
LINE
  8
0
 10
205.312378
 20
154.851349
 11
203.812378
 21
154.851349
  0
LINE
  8
0
 10
205.312378
 20
187.351334
 11
205.312378
 21
154.851349
  0
LINE
  8
0
 10
205.312378
 20
32.551346
 11
205.312378
 21
56.551346
  0
LINE
  8
0
 10
205.312378
 20
56.551346
 11
203.812378
 21
56.551346
  0
LINE
  8
0
 10
205.312378
 20
32.551346
 11
203.812378
 21
32.551346
  0
LINE
  8
0
 10
0.000000
 20
0.000000
 11
0.000000
 21
254.558472
  0
LINE
  8
0
 10
370.873566
 20
254.558472
 11
370.873566
 21
0.000000
  0
LINE
  8
0
 10
0.000000
 20
0.000000
 11
370.873566
 21
0.000000
  0
LINE
  8
0
 10
0.000000
 20
254.558472
 11
370.873566
 21
254.558472
  0
LINE
  8
0
 10
0.000000
 20
240.257431
 11
76.272194
 21
240.257431
  0
LINE
  8
0
 10
76.272194
 20
240.257431
 11
76.272194
 21
254.558472
  0
LINE
  8
0
 10
294.601379
 20
14.301025
 11
370.873566
 21
14.301025
  0
LINE
  8
0
 10
294.601379
 20
240.257431
 11
370.873566
 21
240.257431
  0
LINE
  8
0
 10
294.601379
 20
254.558472
 11
294.601379
 21
240.257431
  0
LINE
  8
0
 10
294.601379
 20
14.301025
 11
294.601379
 21
0.000000
  0
LINE
  8
0
 10
33.779778
 20
106.202713
 11
59.014412
 21
106.202713
  0
ARC
  8
0
 10
213.512375
 20
185.551331
 40
0.800003
 50
0.000000
 51
90.000000
  0
ARC
  8
0
 10
213.512375
 20
156.651337
 40
0.800003
 50
270.000000
 51
0.000000
  0
ARC
  8
0
 10
177.612381
 20
193.851334
 40
0.800003
 50
90.000000
 51
180.000000
  0
ARC
  8
0
 10
203.012375
 20
193.851334
 40
0.800003
 50
0.000000
 51
90.000000
  0
ARC
  8
0
 10
96.012390
 20
193.851334
 40
0.800003
 50
0.000000
 51
90.000000
  0
ARC
  8
0
 10
70.612366
 20
193.851334
 40
0.800003
 50
90.000000
 51
180.000000
  0
ARC
  8
0
 10
96.012390
 20
105.151337
 40
0.800003
 50
270.000000
 51
0.000000
  0
ARC
  8
0
 10
72.812378
 20
134.851349
 40
4.000000
 50
221.409622
 51
138.590378
  0
ARC
  8
0
 10
93.812378
 20
124.851349
 40
4.000000
 50
41.409630
 51
318.590363
  0
ARC
  8
0
 10
70.612366
 20
105.151337
 40
0.800003
 50
180.000000
 51
270.000000
  0
CIRCLE
  8
0
 10
199.312378
 20
35.551346
 40
2.250000
  0
CIRCLE
  8
0
 10
181.312378
 20
53.551346
 40
2.250000
  0
ARC
  8
0
 10
203.012390
 20
31.851349
 40
0.799999
 50
270.000000
 51
0.000000
  0
ARC
  8
0
 10
203.012390
 20
57.251343
 40
0.800003
 50
0.000000
 51
90.000000
  0
ARC
  8
0
 10
177.612366
 20
57.251343
 40
0.799999
 50
90.000000
 51
180.000000
  0
ARC
  8
0
 10
177.612366
 20
31.851341
 40
0.800003
 50
180.000000
 51
270.000000
  0
ARC
  8
0
 10
290.612366
 20
193.851334
 40
0.800003
 50
90.000000
 51
180.000000
  0
ARC
  8
0
 10
316.012390
 20
193.851334
 40
0.799988
 50
0.000000
 51
90.000000
  0
ARC
  8
0
 10
290.612366
 20
105.151337
 40
0.799988
 50
180.000000
 51
270.000000
  0
ARC
  8
0
 10
316.012390
 20
105.151337
 40
0.800003
 50
270.000000
 51
0.000000
  0
CIRCLE
  8
0
 10
313.812378
 20
134.851349
 40
2.200000
  0
CIRCLE
  8
0
 10
292.812378
 20
124.851349
 40
2.200000
  0
CIRCLE
  8
0
 10
303.312378
 20
144.351349
 40
5.000000
  0
CIRCLE
  8
0
 10
303.312378
 20
115.351349
 40
5.000000
  0
CIRCLE
  8
0
 10
303.312378
 20
144.351349
 40
4.000000
  0
CIRCLE
  8
0
 10
303.312378
 20
115.351349
 40
4.000000
  0
CIRCLE
  8
0
 10
72.812378
 20
134.851349
 40
2.200000
  0
CIRCLE
  8
0
 10
93.812378
 20
124.851349
 40
2.200000
  0
ARC
  8
0
 10
301.312378
 20
177.351349
 40
3.500000
 50
90.000000
 51
270.000000
  0
ARC
  8
0
 10
305.312378
 20
177.351349
 40
3.500000
 50
270.000000
 51
90.000000
  0
CIRCLE
  8
0
 10
301.312378
 20
177.351349
 40
1.000000
  0
CIRCLE
  8
0
 10
305.312378
 20
177.351349
 40
1.000000
  0
ARC
  8
0
 10
212.812378
 20
54.051346
 40
1.500000
 50
0.000000
 51
90.000000
  0
ARC
  8
0
 10
212.812378
 20
35.051346
 40
1.500000
 50
270.000000
 51
0.000000
  0
ARC
  8
0
  6
PHANTOM
 10
99.312378
 20
101.351341
 40
3.000000
 50
180.000000
 51
270.000000
  0
ARC
  8
0
  6
PHANTOM
 10
67.312378
 20
101.351341
 40
1.000000
 50
270.000000
 51
0.000000
  0
ARC
  8
0
  6
PHANTOM
 10
99.312378
 20
101.351341
 40
1.000000
 50
180.000000
 51
270.000000
  0
ARC
  8
0
  6
PHANTOM
 10
71.312378
 20
101.351341
 40
1.000000
 50
90.000000
 51
180.000000
  0
ARC
  8
0
  6
PHANTOM
 10
95.312378
 20
101.351341
 40
1.000000
 50
0.000000
 51
90.000000
  0
ARC
  8
0
  6
PHANTOM
 10
71.312378
 20
101.351341
 40
3.000000
 50
90.000000
 51
180.000000
  0
ARC
  8
0
  6
PHANTOM
 10
95.312378
 20
101.351341
 40
3.000000
 50
0.000000
 51
90.000000
  0
ARC
  8
0
  6
PHANTOM
 10
67.312378
 20
101.351341
 40
3.000000
 50
270.000000
 51
0.000000
  0
ARC
  8
0
  6
PHANTOM
 10
190.312378
 20
64.551346
 40
2.250000
 50
0.000000
 51
180.000000
  0
ARC
  8
0
  6
PHANTOM
 10
190.312378
 20
63.551346
 40
2.250000
 50
180.000000
 51
270.000000
  0
ARC
  8
0
  6
PHANTOM
 10
190.312378
 20
63.551346
 40
2.250000
 50
270.000000
 51
0.000000
  0
ARC
  8
0
  6
PHANTOM
 10
190.312378
 20
25.551346
 40
2.250000
 50
0.000000
 51
90.000000
  0
ARC
  8
0
  6
PHANTOM
 10
190.312378
 20
25.551346
 40
2.250000
 50
90.000000
 51
179.999954
  0
ARC
  8
0
  6
PHANTOM
 10
190.312378
 20
24.551346
 40
2.250000
 50
180.000000
 51
0.000000
  0
ARC
  8
0
  6
PHANTOM
 10
319.312378
 20
101.351341
 40
3.000000
 50
180.000000
 51
270.000000
  0
ARC
  8
0
  6
PHANTOM
 10
287.312378
 20
101.351341
 40
1.000000
 50
270.000000
 51
0.000000
  0
ARC
  8
0
  6
PHANTOM
 10
319.312378
 20
101.351341
 40
1.000000
 50
180.000000
 51
270.000000
  0
ARC
  8
0
  6
PHANTOM
 10
291.312378
 20
101.351341
 40
1.000000
 50
90.000000
 51
180.000000
  0
ARC
  8
0
  6
PHANTOM
 10
315.312378
 20
101.351341
 40
1.000000
 50
0.000000
 51
90.000000
  0
ARC
  8
0
  6
PHANTOM
 10
291.312378
 20
101.351341
 40
3.000000
 50
90.000000
 51
180.000000
  0
ARC
  8
0
  6
PHANTOM
 10
315.312378
 20
101.351341
 40
3.000000
 50
0.000000
 51
90.000000
  0
ARC
  8
0
  6
PHANTOM
 10
287.312378
 20
101.351341
 40
3.000000
 50
270.000000
 51
0.000000
  0
CIRCLE
  8
0
 10
199.312378
 20
35.551346
 40
1.500000
  0
CIRCLE
  8
0
 10
181.312378
 20
53.551346
 40
1.500000
  0
CIRCLE
  8
0
 10
303.312378
 20
129.851349
 40
5.000000
  0
CIRCLE
  8
0
 10
303.312378
 20
129.851349
 40
4.000000
  0
CIRCLE
  8
0
 10
83.312378
 20
138.551346
 40
5.000000
  0
CIRCLE
  8
0
 10
83.312378
 20
121.351349
 40
5.000000
  0
CIRCLE
  8
0
 10
83.312378
 20
138.551346
 40
4.000000
  0
CIRCLE
  8
0
 10
83.312378
 20
121.351349
 40
4.000000
  0
ARC
  8
0
  6
PHANTOM
 10
242.229416
 20
148.669708
 40
2.582988
 50
326.340820
 51
33.659184
  0
ARC
  8
0
  6
PHANTOM
 10
234.973404
 20
144.351349
 40
9.838974
 50
342.938416
 51
17.061501
  0
ARC
  8
0
  6
PHANTOM
 10
242.229416
 20
140.032959
 40
2.582988
 50
326.340820
 51
33.659184
  0
ARC
  8
0
  6
PHANTOM
 10
232.395340
 20
148.669708
 40
2.582988
 50
146.340820
 51
213.659180
  0
ARC
  8
0
  6
PHANTOM
 10
239.651352
 20
144.351349
 40
9.838974
 50
162.938416
 51
197.061584
  0
ARC
  8
0
  6
PHANTOM
 10
232.395340
 20
140.032959
 40
2.582988
 50
146.340820
 51
213.659180
  0
CIRCLE
  8
0
  6
PHANTOM
 10
232.312378
 20
144.351349
 40
2.000000
  0
ARC
  8
0
  6
PHANTOM
 10
240.229416
 20
148.669708
 40
2.582988
 50
326.340820
 51
33.659184
  0
ARC
  8
0
  6
PHANTOM
 10
232.973404
 20
144.351349
 40
9.838974
 50
342.938416
 51
17.061501
  0
ARC
  8
0
  6
PHANTOM
 10
240.229416
 20
140.032959
 40
2.582988
 50
326.340820
 51
33.659184
  0
ARC
  8
0
  6
PHANTOM
 10
242.229416
 20
119.669708
 40
2.582988
 50
326.340820
 51
33.659184
  0
ARC
  8
0
  6
PHANTOM
 10
234.973404
 20
115.351334
 40
9.838974
 50
342.938416
 51
17.061543
  0
ARC
  8
0
  6
PHANTOM
 10
242.229416
 20
111.032959
 40
2.582988
 50
326.340820
 51
33.659184
  0
ARC
  8
0
  6
PHANTOM
 10
232.395340
 20
119.669708
 40
2.582988
 50
146.340820
 51
213.659180
  0
ARC
  8
0
  6
PHANTOM
 10
239.651352
 20
115.351334
 40
9.838971
 50
162.938461
 51
197.061539
  0
ARC
  8
0
  6
PHANTOM
 10
232.395340
 20
111.032959
 40
2.582988
 50
146.340820
 51
213.659042
  0
CIRCLE
  8
0
  6
PHANTOM
 10
232.312378
 20
115.351334
 40
2.000000
  0
ARC
  8
0
  6
PHANTOM
 10
240.229416
 20
119.669708
 40
2.582988
 50
326.340820
 51
33.659184
  0
ARC
  8
0
  6
PHANTOM
 10
232.973404
 20
115.351334
 40
9.838974
 50
342.938416
 51
17.061543
  0
ARC
  8
0
  6
PHANTOM
 10
240.229416
 20
111.032959
 40
2.582988
 50
326.340820
 51
33.659184
  0
CIRCLE
  8
0
 10
199.312378
 20
137.251343
 40
1.600000
  0
CIRCLE
  8
0
 10
199.312378
 20
122.851349
 40
1.600000
  0
TEXT
  8
0
 10
74.818703
 20
139.613892
 40
2.500000
  1
A
 50
0.000000
 41
1.052632
 51
0.000000
  7
STANDARD
  0
TEXT
  8
0
 10
74.678688
 20
122.110901
 40
2.500000
  1
B
 50
0.000000
 41
1.052632
 51
0.000000
  7
STANDARD
  0
TEXT
  8
0
 10
294.421173
 20
130.122894
 40
2.500000
  1
P
 50
0.000000
 41
1.052632
 51
0.000000
  7
STANDARD
  0
TEXT
  8
0
 10
293.256561
 20
144.680420
 40
2.500000
  1
R1
 50
0.000000
 41
1.052632
 51
0.000000
  7
STANDARD
  0
TEXT
  8
0
 10
292.771301
 20
115.953568
 40
2.500000
  1
R2
 50
0.000000
 41
1.052632
 51
0.000000
  7
STANDARD
  0
TEXT
  8
0
 10
298.797760
 20
244.589584
 40
4.242641
  1
DATE : AUG ,1992
 50
0.000000
 41
1.052631
 51
0.000000
  7
STANDARD
  0
TEXT
  8
0
 10
20.171822
 20
243.907959
 40
5.000000
  1
100-4E1
 50
0.000000
 41
1.052632
 51
0.000000
  7
STANDARD
  0
TEXT
  8
0
 10
302.273193
 20
3.650512
 40
5.000000
  1
KOGANEI,CORP
 50
0.000000
 41
1.052632
 51
0.000000
  7
STANDARD
  0
TEXT
  8
0
 10
29.703211
 20
212.825531
 40
6.000000
  1
MODEL:100-4E1
 50
0.000000
 41
1.052632
 51
0.000000
  7
STANDARD
  0
TEXT
  8
0
 10
36.878403
 20
106.749123
 40
3.200000
  1
ƒÓ8-3
 50
0.000000
 41
1.052632
 51
0.000000
  7
STANDARD
  0
LINE
  8
0
 10
87.370445
 20
141.472321
 11
99.870445
 21
163.122955
  0
LINE
  8
0
 10
99.870445
 20
163.122955
 11
130.614197
 21
163.122955
  0
LINE
  8
0
 10
87.370445
 20
141.472321
 11
89.491768
 21
143.593643
  0
LINE
  8
0
 10
87.370445
 20
141.472321
 11
88.146904
 21
144.370102
  0
TEXT
  8
0
 10
107.549911
 20
164.122955
 40
3.200000
  1
5-RC1/8
 50
0.000000
 41
1.052632
 51
0.000000
  7
STANDARD
  0
LINE
  8
0
 10
71.491035
 20
133.092361
 11
58.991035
 21
111.441719
  0
LINE
  8
0
 10
58.991035
 20
111.441719
 11
34.047314
 21
111.441727
  0
LINE
  8
0
 10
71.491035
 20
133.092361
 11
69.369713
 21
130.971039
  0
LINE
  8
0
 10
71.491035
 20
133.092361
 11
70.714577
 21
130.194580
  0
TEXT
  8
0
 10
34.297314
 20
112.441727
 40
3.200000
  1
2-ƒÓ4.4
 50
0.000000
 41
1.052632
 51
0.000000
  7
STANDARD
  0
LINE
  8
0
 10
198.524292
 20
121.458908
 11
178.524307
 21
86.817879
  0
LINE
  8
0
 10
178.524307
 20
86.817879
 11
154.277588
 21
86.817879
  0
LINE
  8
0
 10
198.524292
 20
121.458908
 11
196.402969
 21
119.337585
  0
LINE
  8
0
 10
198.524292
 20
121.458908
 11
197.747833
 21
118.561127
  0
TEXT
  8
0
 10
154.527588
 20
87.817879
 40
3.200000
  1
2-ƒÓ3.2
 50
0.000000
 41
1.052632
 51
0.000000
  7
STANDARD
  0
LINE
  8
0
 10
200.684097
 20
33.767849
 11
210.684097
 21
16.447350
  0
LINE
  8
0
 10
210.684097
 20
16.447350
 11
245.346542
 21
16.447346
  0
LINE
  8
0
 10
200.684097
 20
33.767849
 11
201.460556
 21
30.870071
  0
LINE
  8
0
 10
200.684097
 20
33.767849
 11
202.805420
 21
31.646530
  0
TEXT
  8
0
 10
212.682251
 20
17.447346
 40
3.200000
  1
2-M4X0.7-9
 50
0.000000
 41
1.052632
 51
0.000000
  7
STANDARD
  0
LINE
  8
0
 10
101.713646
 20
98.412453
 11
91.713638
 21
81.091949
  0
LINE
  8
0
 10
91.713638
 20
81.091949
 11
39.921028
 21
81.091957
  0
LINE
  8
0
 10
101.713646
 20
98.412453
 11
99.592323
 21
96.291130
  0
LINE
  8
0
 10
101.713646
 20
98.412453
 11
100.937187
 21
95.514679
  0
TEXT
  8
0
 10
40.171028
 20
82.091957
 40
3.200000
  1
BASE PLATE(-21)
 50
0.000000
 41
1.052632
 51
0.000000
  7
STANDARD
  0
LINE
  8
0
 10
235.066772
 20
150.341248
 11
245.066788
 21
167.661758
  0
LINE
  8
0
 10
245.066788
 20
167.661758
 11
272.797668
 21
167.661758
  0
LINE
  8
0
 10
235.066772
 20
150.341248
 11
237.188095
 21
152.462570
  0
LINE
  8
0
 10
235.066772
 20
150.341248
 11
235.843231
 21
153.239029
  0
TEXT
  8
0
 10
246.533386
 20
168.661758
 40
3.200000
  1
S.C(-70)
 50
0.000000
 41
1.052632
 51
0.000000
  7
STANDARD
  0
LINE
  8
0
 10
212.218109
 20
109.601349
 11
222.218109
 21
92.280830
  0
LINE
  8
0
 10
222.218109
 20
92.280830
 11
262.749023
 21
92.280838
  0
LINE
  8
0
 10
212.218109
 20
109.601349
 11
212.994568
 21
106.703575
  0
LINE
  8
0
 10
212.218109
 20
109.601349
 11
214.339432
 21
107.480026
  0
TEXT
  8
0
 10
223.684738
 20
93.280838
 40
3.200000
  1
MUFFLER(-75)
 50
0.000000
 41
1.052632
 51
0.000000
  7
STANDARD
  0
ENDSEC
  0
EOF
