  0
SECTION
  2
HEADER
  9
$ACADVER
  1
AC1009
  9
$INSBASE
 10
0.0
 20
0.0
 30
0.0
  9
$EXTMIN
 10
-138.3999939
 20
-94.80000305
 30
0.0
  9
$EXTMAX
 10
138.3500061
 20
94.5
 30
0.0
  9
$LIMMIN
 10
-138.3999939
 20
-94.80000305
  9
$LIMMAX
 10
138.3500061
 20
94.5
  9
$ORTHOMODE
 70
       0
  9
$REGENMODE
 70
       1
  9
$FILLMODE
 70
       1
  9
$QTEXTMODE
 70
       0
  9
$MIRRTEXT
 70
       1
  9
$DRAGMODE
 70
       2
  9
$LTSCALE
 40
1.0
  9
$OSMODE
 70
       0
  9
$ATTMODE
 70
       1
  9
$TEXTSIZE
 40
3.20000005
  9
$TRACEWID
 40
0.05
  9
$TEXTSTYLE
  7
MX_NOTE_STANDARD
  9
$CLAYER
  8
0
  9
$CELTYPE
  6
CONTINUOUS
  9
$CECOLOR
 62
     256
  9
$DIMSCALE
 40
1.0
  9
$DIMASZ
 40
2.5
  9
$DIMEXO
 40
1.5
  9
$DIMDLI
 40
3.75
  9
$DIMRND
 40
0.0
  9
$DIMDLE
 40
0.0
  9
$DIMEXE
 40
1.5
  9
$DIMTP
 40
0.0
  9
$DIMTM
 40
0.0
  9
$DIMTXT
 40
3.20000005
  9
$DIMCEN
 40
2.5
  9
$DIMTSZ
 40
0.0
  9
$DIMTOL
 70
       0
  9
$DIMLIM
 70
       0
  9
$DIMTIH
 70
       0
  9
$DIMTOH
 70
       0
  9
$DIMSE1
 70
       0
  9
$DIMSE2
 70
       0
  9
$DIMTAD
 70
       1
  9
$DIMZIN
 70
       8
  9
$DIMBLK
  1

  9
$DIMASO
 70
       1
  9
$DIMSHO
 70
       1
  9
$DIMPOST
  1

  9
$DIMAPOST
  1

  9
$DIMALT
 70
       0
  9
$DIMALTD
 70
       4
  9
$DIMALTF
 40
0.0394
  9
$DIMLFAC
 40
1.0
  9
$DIMTOFL
 70
       1
  9
$DIMTVP
 40
0.0
  9
$DIMTIX
 70
       0
  9
$DIMSOXD
 70
       0
  9
$DIMSAH
 70
       0
  9
$DIMBLK1
  1

  9
$DIMBLK2
  1

  9
$DIMSTYLE
  2
MXDIMSTYLE
  9
$DIMCLRD
 70
       0
  9
$DIMCLRE
 70
       0
  9
$DIMCLRT
 70
       0
  9
$DIMTFAC
 40
1.0
  9
$DIMGAP
 40
1.0
  9
$LUNITS
 70
       2
  9
$LUPREC
 70
       4
  9
$AXISMODE
 70
       0
  9
$AXISUNIT
 10
0.0
 20
0.0
  9
$SKETCHINC
 40
0.1
  9
$FILLETRAD
 40
0.0
  9
$AUNITS
 70
       0
  9
$AUPREC
 70
       0
  9
$MENU
  1
acad
  9
$ELEVATION
 40
0.0
  9
$PELEVATION
 40
0.0
  9
$THICKNESS
 40
0.0
  9
$LIMCHECK
 70
       0
  9
$BLIPMODE
 70
       1
  9
$CHAMFERA
 40
0.0
  9
$CHAMFERB
 40
0.0
  9
$SKPOLY
 70
       0
  9
$TDCREATE
 40
2452580.505208334
  9
$TDUPDATE
 40
2452580.505208334
  9
$TDINDWG
 40
0.0000000000
  9
$TDUSRTIMER
 40
0.0000000000
  9
$USRTIMER
 70
       1
  9
$ANGBASE
 50
0.0
  9
$ANGDIR
 70
       0
  9
$PDMODE
 70
       0
  9
$PDSIZE
 40
0.0
  9
$PLINEWID
 40
0.0
  9
$COORDS
 70
       1
  9
$SPLFRAME
 70
       0
  9
$SPLINETYPE
 70
       6
  9
$SPLINESEGS
 70
       8
  9
$ATTDIA
 70
       0
  9
$ATTREQ
 70
       1
  9
$HANDLING
 70
       1
  9
$HANDSEED
  5
1CA
  9
$SURFTAB1
 70
       6
  9
$SURFTAB2
 70
       6
  9
$SURFTYPE
 70
       6
  9
$SURFU
 70
       6
  9
$SURFV
 70
       6
  9
$UCSNAME
  2

  9
$UCSORG
 10
0.0
 20
0.0
 30
0.0
  9
$UCSXDIR
 10
1.0
 20
0.0
 30
0.0
  9
$UCSYDIR
 10
0.0
 20
1.0
 30
0.0
  9
$PUCSNAME
  2

  9
$PUCSORG
 10
0.0
 20
0.0
 30
0.0
  9
$PUCSXDIR
 10
1.0
 20
0.0
 30
0.0
  9
$PUCSYDIR
 10
0.0
 20
1.0
 30
0.0
  9
$USERI1
 70
       0
  9
$USERI2
 70
       0
  9
$USERI3
 70
       0
  9
$USERI4
 70
       0
  9
$USERI5
 70
       0
  9
$USERR1
 40
0.0
  9
$USERR2
 40
0.0
  9
$USERR3
 40
0.0
  9
$USERR4
 40
0.0
  9
$USERR5
 40
0.0
  9
$WORLDVIEW
 70
       1
  9
$SHADEDGE
 70
       3
  9
$SHADEDIF
 70
      70
  9
$TILEMODE
 70
       1
  9
$MAXACTVP
 70
      16
  9
$PINSBASE
 10
0.0
 20
0.0
 30
0.0
  9
$PLIMCHECK
 70
       0
  9
$PEXTMIN
 10
1.00000000E+20
 20
1.00000000E+20
 30
1.00000000E+20
  9
$PEXTMAX
 10
-1.00000000E+20
 20
-1.00000000E+20
 30
-1.00000000E+20
  9
$PLIMMIN
 10
0.0
 20
0.0
  9
$PLIMMAX
 10
12.0
 20
9.0
  9
$UNITMODE
 70
       0
  9
$VISRETAIN
 70
       0
  9
$PLINEGEN
 70
       1
  9
$PSLTSCALE
 70
       0
  9
$TREEDEPTH
 70
    3020
  9
$DWGCODEPAGE
  3
dos932
  0
ENDSEC
  0
SECTION
  2
TABLES
  0
TABLE
  2
VPORT
 70
       1
  0
VPORT
  2
*ACTIVE
 70
       0
 10
0.0
 20
0.0
 11
1.0
 21
1.0
 12
-0.0249939
 22
-0.15000153
 13
0.0
 23
0.0
 14
1.0
 24
1.0
 15
0.0
 25
0.0
 16
0.0
 26
0.0
 36
1.0
 17
0.0
 27
0.0
 37
0.0
 40
191.19300308
 41
1.73205081
 42
50.0
 43
0.0
 44
0.0
 50
0.0
 51
0.0
 71
       0
 72
     100
 73
       1
 74
       1
 75
       0
 76
       0
 77
       0
 78
       0
  0
ENDTAB
  0
TABLE
  2
LTYPE
 70
       3
  0
LTYPE
  2
CONTINUOUS
 70
      64
  3
Solid line
 72
      65
 73
       0
 40
0.0
  0
LTYPE
  2
CENTER
 70
      64
  3
Center ____ _ ____ _ ____ _ ____ _ ____ _ ____
 72
      65
 73
       4
 40
50.8
 49
31.75
 49
-6.35
 49
6.35
 49
-6.35
  0
LTYPE
  2
PHANTOM
 70
      64
  3
Phantom ______  __  __  ______  __  __  ______
 72
      65
 73
       6
 40
63.5
 49
31.75
 49
-6.35
 49
6.35
 49
-6.35
 49
6.35
 49
-6.35
  0
ENDTAB
  0
TABLE
  2
LAYER
 70
       2
  0
LAYER
  2
0
 70
       0
 62
       7
  6
CONTINUOUS
  0
LAYER
  2
DEFPOINTS
 70
       0
 62
       7
  6
CONTINUOUS
  0
ENDTAB
  0
TABLE
  2
STYLE
 70
       1
  0
STYLE
  2
MX_NOTE_STANDARD
 70
       0
 40
3.20000005
 41
1.0
 50
0.0
 71
       0
 42
3.20000005
  3
txt.shx
  4
extfont.shx
  0
ENDTAB
  0
TABLE
  2
VIEW
 70
       0
  0
ENDTAB
  0
TABLE
  2
UCS
 70
       0
  0
ENDTAB
  0
TABLE
  2
APPID
 70
       1
  0
APPID
  2
ACAD
 70
       0
  0
ENDTAB
  0
TABLE
  2
DIMSTYLE
 70
       1
  0
DIMSTYLE
  2
MXDIMSTYLE
 70
       0
  3

  4

  5

  6

  7

 40
1.0
 41
2.5
 42
1.5
 43
3.75
 44
1.5
 45
0.0
 46
0.0
 47
0.0
 48
0.0
 71
       0
 72
       0
 73
       0
 74
       0
 75
       0
 76
       0
 77
       1
 78
       8
140
3.20000005
141
2.5
142
0.0
143
0.0394
144
1.0
145
0.0
146
1.0
147
1.0
170
       0
171
       4
172
       1
173
       0
174
       0
175
       0
176
       0
177
       0
178
       0
  0
ENDTAB
  0
ENDSEC
  0
SECTION
  2
BLOCKS
  0
BLOCK
  8
0
  6
BYBLOCK
 62
       0
  5
20
  2
_OPEN30
 70
       2
 10
0.0
 20
0.0
 30
0.0
  3
_OPEN30
  0
LINE
  8
0
  6
BYBLOCK
 62
       0
  5
21
 10
-1.0
 20
0.267949
 30
0.0
 11
0.0
 21
0.0
 31
0.0
  0
LINE
  8
0
  6
BYBLOCK
 62
       0
  5
22
 10
0.0
 20
0.0
 30
0.0
 11
-1.0
 21
-0.267949
 31
0.0
  0
LINE
  8
0
  6
BYBLOCK
 62
       0
  5
23
 10
0.0
 20
0.0
 30
0.0
 11
-1.0
 21
0.0
 31
0.0
  0
ENDBLK
  8
0
  6
BYBLOCK
 62
       0
  5
24
  0
ENDSEC
  0
SECTION
  2
ENTITIES
  0
POLYLINE
  8
0
 62
       2
  5
1E
 66
       1
 10
0.0
 20
0.0
 30
0.0
  0
VERTEX
  8
0
 62
       2
  5
FF
 10
-52.68030019
 20
-17.71075765
 30
0.0
  0
VERTEX
  8
0
 62
       2
  5
100
 10
-46.10012903
 20
-6.31356689
 30
0.0
  0
VERTEX
  8
0
 62
       2
  5
101
 10
-34.54542687
 20
-6.31356689
 30
0.0
  0
SEQEND
  8
0
 62
       2
  5
102
  0
INSERT
  8
0
 62
       2
  5
25
  2
_OPEN30
 10
-52.68030019
 20
-17.71075765
 30
0.0
 41
2.77
 42
2.77
 50
240.0
 43
2.77
  0
TEXT
  8
0
 62
       2
  5
26
 10
-43.54542634
 20
-4.31356713
 30
0.0
 40
3.19999981
  1
-21
 41
1.12499999
  7
MX_NOTE_STANDARD
 11
-43.54542634
 21
-2.71356722
 31
0.0
 73
       2
  0
POLYLINE
  8
0
  6
CONTINUOUS
 62
       7
  5
27
 66
       1
 10
0.0
 20
0.0
 30
0.0
  0
VERTEX
  8
0
  6
CONTINUOUS
 62
       7
  5
103
 10
82.8363611
 20
68.53923892
 30
0.0
  0
VERTEX
  8
0
  6
CONTINUOUS
 62
       7
  5
104
 10
82.84354981
 20
68.61288566
 30
0.0
  0
VERTEX
  8
0
  6
CONTINUOUS
 62
       7
  5
105
 10
82.85219215
 20
68.68699863
 30
0.0
  0
VERTEX
  8
0
  6
CONTINUOUS
 62
       7
  5
106
 10
82.86236646
 20
68.76139757
 30
0.0
  0
VERTEX
  8
0
  6
CONTINUOUS
 62
       7
  5
107
 10
82.8741511
 20
68.83590216
 30
0.0
  0
VERTEX
  8
0
  6
CONTINUOUS
 62
       7
  5
108
 10
82.88762444
 20
68.91033212
 30
0.0
  0
VERTEX
  8
0
  6
CONTINUOUS
 62
       7
  5
109
 10
82.90286482
 20
68.98450715
 30
0.0
  0
VERTEX
  8
0
  6
CONTINUOUS
 62
       7
  5
10A
 10
82.9199506
 20
69.05824697
 30
0.0
  0
VERTEX
  8
0
  6
CONTINUOUS
 62
       7
  5
10B
 10
82.93896014
 20
69.13137127
 30
0.0
  0
VERTEX
  8
0
  6
CONTINUOUS
 62
       7
  5
10C
 10
82.95997179
 20
69.20369977
 30
0.0
  0
VERTEX
  8
0
  6
CONTINUOUS
 62
       7
  5
10D
 10
82.98306391
 20
69.27505218
 30
0.0
  0
VERTEX
  8
0
  6
CONTINUOUS
 62
       7
  5
10E
 10
83.00831485
 20
69.34524819
 30
0.0
  0
VERTEX
  8
0
  6
CONTINUOUS
 62
       7
  5
10F
 10
83.03580298
 20
69.41410753
 30
0.0
  0
VERTEX
  8
0
  6
CONTINUOUS
 62
       7
  5
110
 10
83.06560664
 20
69.48144989
 30
0.0
  0
VERTEX
  8
0
  6
CONTINUOUS
 62
       7
  5
111
 10
83.0978042
 20
69.54709499
 30
0.0
  0
VERTEX
  8
0
  6
CONTINUOUS
 62
       7
  5
112
 10
83.13247401
 20
69.61086252
 30
0.0
  0
VERTEX
  8
0
  6
CONTINUOUS
 62
       7
  5
113
 10
83.16969442
 20
69.67257221
 30
0.0
  0
VERTEX
  8
0
  6
CONTINUOUS
 62
       7
  5
114
 10
83.26767427
 20
69.81020646
 30
0.0
  0
VERTEX
  8
0
  6
CONTINUOUS
 62
       7
  5
115
 10
83.37835823
 20
69.93589198
 30
0.0
  0
VERTEX
  8
0
  6
CONTINUOUS
 62
       7
  5
116
 10
83.50089718
 20
70.0500425
 30
0.0
  0
VERTEX
  8
0
  6
CONTINUOUS
 62
       7
  5
117
 10
83.634442
 20
70.15307179
 30
0.0
  0
VERTEX
  8
0
  6
CONTINUOUS
 62
       7
  5
118
 10
83.77814359
 20
70.24539359
 30
0.0
  0
VERTEX
  8
0
  6
CONTINUOUS
 62
       7
  5
119
 10
83.93115283
 20
70.32742166
 30
0.0
  0
VERTEX
  8
0
  6
CONTINUOUS
 62
       7
  5
11A
 10
84.09262061
 20
70.39956974
 30
0.0
  0
VERTEX
  8
0
  6
CONTINUOUS
 62
       7
  5
11B
 10
84.2616978
 20
70.46225159
 30
0.0
  0
VERTEX
  8
0
  6
CONTINUOUS
 62
       7
  5
11C
 10
84.43753531
 20
70.51588096
 30
0.0
  0
VERTEX
  8
0
  6
CONTINUOUS
 62
       7
  5
11D
 10
84.61928401
 20
70.5608716
 30
0.0
  0
VERTEX
  8
0
  6
CONTINUOUS
 62
       7
  5
11E
 10
84.8060948
 20
70.59763726
 30
0.0
  0
VERTEX
  8
0
  6
CONTINUOUS
 62
       7
  5
11F
 10
84.99711855
 20
70.62659169
 30
0.0
  0
VERTEX
  8
0
  6
CONTINUOUS
 62
       7
  5
120
 10
85.19150616
 20
70.64814865
 30
0.0
  0
VERTEX
  8
0
  6
CONTINUOUS
 62
       7
  5
121
 10
85.38840851
 20
70.66272188
 30
0.0
  0
VERTEX
  8
0
  6
CONTINUOUS
 62
       7
  5
122
 10
85.58697649
 20
70.67072514
 30
0.0
  0
VERTEX
  8
0
  6
CONTINUOUS
 62
       7
  5
123
 10
85.78636098
 20
70.67257217
 30
0.0
  0
VERTEX
  8
0
  6
CONTINUOUS
 62
       7
  5
124
 10
85.99241314
 20
70.66828041
 30
0.0
  0
VERTEX
  8
0
  6
CONTINUOUS
 62
       7
  5
125
 10
86.19774304
 20
70.65739736
 30
0.0
  0
VERTEX
  8
0
  6
CONTINUOUS
 62
       7
  5
126
 10
86.40140993
 20
70.63952353
 30
0.0
  0
VERTEX
  8
0
  6
CONTINUOUS
 62
       7
  5
127
 10
86.60247302
 20
70.61425943
 30
0.0
  0
VERTEX
  8
0
  6
CONTINUOUS
 62
       7
  5
128
 10
86.79999155
 20
70.5812056
 30
0.0
  0
VERTEX
  8
0
  6
CONTINUOUS
 62
       7
  5
129
 10
86.99302475
 20
70.53996254
 30
0.0
  0
VERTEX
  8
0
  6
CONTINUOUS
 62
       7
  5
12A
 10
87.18063185
 20
70.49013078
 30
0.0
  0
VERTEX
  8
0
  6
CONTINUOUS
 62
       7
  5
12B
 10
87.36187208
 20
70.43131084
 30
0.0
  0
VERTEX
  8
0
  6
CONTINUOUS
 62
       7
  5
12C
 10
87.53580467
 20
70.36310323
 30
0.0
  0
VERTEX
  8
0
  6
CONTINUOUS
 62
       7
  5
12D
 10
87.70148885
 20
70.28510847
 30
0.0
  0
VERTEX
  8
0
  6
CONTINUOUS
 62
       7
  5
12E
 10
87.85798385
 20
70.19692709
 30
0.0
  0
VERTEX
  8
0
  6
CONTINUOUS
 62
       7
  5
12F
 10
88.0043489
 20
70.09815959
 30
0.0
  0
VERTEX
  8
0
  6
CONTINUOUS
 62
       7
  5
130
 10
88.13964323
 20
69.9884065
 30
0.0
  0
VERTEX
  8
0
  6
CONTINUOUS
 62
       7
  5
131
 10
88.26292607
 20
69.86726834
 30
0.0
  0
VERTEX
  8
0
  6
CONTINUOUS
 62
       7
  5
132
 10
88.37325665
 20
69.73434563
 30
0.0
  0
VERTEX
  8
0
  6
CONTINUOUS
 62
       7
  5
133
 10
88.46969421
 20
69.58923888
 30
0.0
  0
VERTEX
  8
0
  6
CONTINUOUS
 62
       7
  5
134
 10
88.50228865
 20
69.531229
 30
0.0
  0
VERTEX
  8
0
  6
CONTINUOUS
 62
       7
  5
135
 10
88.53280032
 20
69.47151374
 30
0.0
  0
VERTEX
  8
0
  6
CONTINUOUS
 62
       7
  5
136
 10
88.56127996
 20
69.41024096
 30
0.0
  0
VERTEX
  8
0
  6
CONTINUOUS
 62
       7
  5
137
 10
88.58777832
 20
69.34755852
 30
0.0
  0
VERTEX
  8
0
  6
CONTINUOUS
 62
       7
  5
138
 10
88.61234617
 20
69.28361429
 30
0.0
  0
VERTEX
  8
0
  6
CONTINUOUS
 62
       7
  5
139
 10
88.63503426
 20
69.21855613
 30
0.0
  0
VERTEX
  8
0
  6
CONTINUOUS
 62
       7
  5
13A
 10
88.65589333
 20
69.15253191
 30
0.0
  0
VERTEX
  8
0
  6
CONTINUOUS
 62
       7
  5
13B
 10
88.67497416
 20
69.0856895
 30
0.0
  0
VERTEX
  8
0
  6
CONTINUOUS
 62
       7
  5
13C
 10
88.69232748
 20
69.01817675
 30
0.0
  0
VERTEX
  8
0
  6
CONTINUOUS
 62
       7
  5
13D
 10
88.70800406
 20
68.95014154
 30
0.0
  0
VERTEX
  8
0
  6
CONTINUOUS
 62
       7
  5
13E
 10
88.72205465
 20
68.88173173
 30
0.0
  0
VERTEX
  8
0
  6
CONTINUOUS
 62
       7
  5
13F
 10
88.73453001
 20
68.81309518
 30
0.0
  0
VERTEX
  8
0
  6
CONTINUOUS
 62
       7
  5
140
 10
88.74548089
 20
68.74437976
 30
0.0
  0
VERTEX
  8
0
  6
CONTINUOUS
 62
       7
  5
141
 10
88.75495804
 20
68.67573333
 30
0.0
  0
VERTEX
  8
0
  6
CONTINUOUS
 62
       7
  5
142
 10
88.76301223
 20
68.60730377
 30
0.0
  0
VERTEX
  8
0
  6
CONTINUOUS
 62
       7
  5
143
 10
88.76969419
 20
68.53923892
 30
0.0
  0
SEQEND
  8
0
  6
CONTINUOUS
 62
       7
  5
144
  0
POLYLINE
  8
0
  6
CONTINUOUS
 62
       7
  5
28
 66
       1
 10
0.0
 20
0.0
 30
0.0
  0
VERTEX
  8
0
  6
CONTINUOUS
 62
       7
  5
145
 10
-94.1469652
 20
68.53923892
 30
0.0
  0
VERTEX
  8
0
  6
CONTINUOUS
 62
       7
  5
146
 10
-94.13977653
 20
68.6128856
 30
0.0
  0
VERTEX
  8
0
  6
CONTINUOUS
 62
       7
  5
147
 10
-94.1311343
 20
68.68699841
 30
0.0
  0
VERTEX
  8
0
  6
CONTINUOUS
 62
       7
  5
148
 10
-94.12096014
 20
68.7613971
 30
0.0
  0
VERTEX
  8
0
  6
CONTINUOUS
 62
       7
  5
149
 10
-94.10917569
 20
68.83590138
 30
0.0
  0
VERTEX
  8
0
  6
CONTINUOUS
 62
       7
  5
14A
 10
-94.09570257
 20
68.91033101
 30
0.0
  0
VERTEX
  8
0
  6
CONTINUOUS
 62
       7
  5
14B
 10
-94.0804624
 20
68.9845057
 30
0.0
  0
VERTEX
  8
0
  6
CONTINUOUS
 62
       7
  5
14C
 10
-94.06337683
 20
69.05824519
 30
0.0
  0
VERTEX
  8
0
  6
CONTINUOUS
 62
       7
  5
14D
 10
-94.04436747
 20
69.13136921
 30
0.0
  0
VERTEX
  8
0
  6
CONTINUOUS
 62
       7
  5
14E
 10
-94.02335596
 20
69.20369749
 30
0.0
  0
VERTEX
  8
0
  6
CONTINUOUS
 62
       7
  5
14F
 10
-94.00026393
 20
69.27504976
 30
0.0
  0
VERTEX
  8
0
  6
CONTINUOUS
 62
       7
  5
150
 10
-93.975013
 20
69.34524576
 30
0.0
  0
VERTEX
  8
0
  6
CONTINUOUS
 62
       7
  5
151
 10
-93.94752479
 20
69.41410521
 30
0.0
  0
VERTEX
  8
0
  6
CONTINUOUS
 62
       7
  5
152
 10
-93.91772096
 20
69.48144785
 30
0.0
  0
VERTEX
  8
0
  6
CONTINUOUS
 62
       7
  5
153
 10
-93.8855231
 20
69.54709341
 30
0.0
  0
VERTEX
  8
0
  6
CONTINUOUS
 62
       7
  5
154
 10
-93.85085287
 20
69.61086162
 30
0.0
  0
VERTEX
  8
0
  6
CONTINUOUS
 62
       7
  5
155
 10
-93.81363188
 20
69.67257221
 30
0.0
  0
VERTEX
  8
0
  6
CONTINUOUS
 62
       7
  5
156
 10
-93.71565036
 20
69.81020861
 30
0.0
  0
VERTEX
  8
0
  6
CONTINUOUS
 62
       7
  5
157
 10
-93.60496457
 20
69.93589571
 30
0.0
  0
VERTEX
  8
0
  6
CONTINUOUS
 62
       7
  5
158
 10
-93.4824237
 20
70.05004733
 30
0.0
  0
VERTEX
  8
0
  6
CONTINUOUS
 62
       7
  5
159
 10
-93.34887694
 20
70.15307727
 30
0.0
  0
VERTEX
  8
0
  6
CONTINUOUS
 62
       7
  5
15A
 10
-93.20517351
 20
70.24539934
 30
0.0
  0
VERTEX
  8
0
  6
CONTINUOUS
 62
       7
  5
15B
 10
-93.05216259
 20
70.32742735
 30
0.0
  0
VERTEX
  8
0
  6
CONTINUOUS
 62
       7
  5
15C
 10
-92.89069339
 20
70.39957511
 30
0.0
  0
VERTEX
  8
0
  6
CONTINUOUS
 62
       7
  5
15D
 10
-92.7216151
 20
70.46225643
 30
0.0
  0
VERTEX
  8
0
  6
CONTINUOUS
 62
       7
  5
15E
 10
-92.54577691
 20
70.51588511
 30
0.0
  0
VERTEX
  8
0
  6
CONTINUOUS
 62
       7
  5
15F
 10
-92.36402804
 20
70.56087497
 30
0.0
  0
VERTEX
  8
0
  6
CONTINUOUS
 62
       7
  5
160
 10
-92.17721767
 20
70.59763982
 30
0.0
  0
VERTEX
  8
0
  6
CONTINUOUS
 62
       7
  5
161
 10
-91.986195
 20
70.62659347
 30
0.0
  0
VERTEX
  8
0
  6
CONTINUOUS
 62
       7
  5
162
 10
-91.79180924
 20
70.64814971
 30
0.0
  0
VERTEX
  8
0
  6
CONTINUOUS
 62
       7
  5
163
 10
-91.59490957
 20
70.66272237
 30
0.0
  0
VERTEX
  8
0
  6
CONTINUOUS
 62
       7
  5
164
 10
-91.3963452
 20
70.67072526
 30
0.0
  0
VERTEX
  8
0
  6
CONTINUOUS
 62
       7
  5
165
 10
-91.19696532
 20
70.67257217
 30
0.0
  0
VERTEX
  8
0
  6
CONTINUOUS
 62
       7
  5
166
 10
-90.99091785
 20
70.66828045
 30
0.0
  0
VERTEX
  8
0
  6
CONTINUOUS
 62
       7
  5
167
 10
-90.78559143
 20
70.65739746
 30
0.0
  0
VERTEX
  8
0
  6
CONTINUOUS
 62
       7
  5
168
 10
-90.58192698
 20
70.6395237
 30
0.0
  0
VERTEX
  8
0
  6
CONTINUOUS
 62
       7
  5
169
 10
-90.38086536
 20
70.61425969
 30
0.0
  0
VERTEX
  8
0
  6
CONTINUOUS
 62
       7
  5
16A
 10
-90.18334748
 20
70.58120594
 30
0.0
  0
VERTEX
  8
0
  6
CONTINUOUS
 62
       7
  5
16B
 10
-89.99031423
 20
70.53996297
 30
0.0
  0
VERTEX
  8
0
  6
CONTINUOUS
 62
       7
  5
16C
 10
-89.80270649
 20
70.49013129
 30
0.0
  0
VERTEX
  8
0
  6
CONTINUOUS
 62
       7
  5
16D
 10
-89.62146516
 20
70.43131141
 30
0.0
  0
VERTEX
  8
0
  6
CONTINUOUS
 62
       7
  5
16E
 10
-89.44753113
 20
70.36310385
 30
0.0
  0
VERTEX
  8
0
  6
CONTINUOUS
 62
       7
  5
16F
 10
-89.28184529
 20
70.28510911
 30
0.0
  0
VERTEX
  8
0
  6
CONTINUOUS
 62
       7
  5
170
 10
-89.12534853
 20
70.19692772
 30
0.0
  0
VERTEX
  8
0
  6
CONTINUOUS
 62
       7
  5
171
 10
-88.97898174
 20
70.09816019
 30
0.0
  0
VERTEX
  8
0
  6
CONTINUOUS
 62
       7
  5
172
 10
-88.84368581
 20
69.98840702
 30
0.0
  0
VERTEX
  8
0
  6
CONTINUOUS
 62
       7
  5
173
 10
-88.72040163
 20
69.86726874
 30
0.0
  0
VERTEX
  8
0
  6
CONTINUOUS
 62
       7
  5
174
 10
-88.6100701
 20
69.73434586
 30
0.0
  0
VERTEX
  8
0
  6
CONTINUOUS
 62
       7
  5
175
 10
-88.5136321
 20
69.58923888
 30
0.0
  0
VERTEX
  8
0
  6
CONTINUOUS
 62
       7
  5
176
 10
-88.4810376
 20
69.53122892
 30
0.0
  0
VERTEX
  8
0
  6
CONTINUOUS
 62
       7
  5
177
 10
-88.45052589
 20
69.47151359
 30
0.0
  0
VERTEX
  8
0
  6
CONTINUOUS
 62
       7
  5
178
 10
-88.42204623
 20
69.41024076
 30
0.0
  0
VERTEX
  8
0
  6
CONTINUOUS
 62
       7
  5
179
 10
-88.39554785
 20
69.3475583
 30
0.0
  0
VERTEX
  8
0
  6
CONTINUOUS
 62
       7
  5
17A
 10
-88.37097999
 20
69.28361406
 30
0.0
  0
VERTEX
  8
0
  6
CONTINUOUS
 62
       7
  5
17B
 10
-88.34829191
 20
69.2185559
 30
0.0
  0
VERTEX
  8
0
  6
CONTINUOUS
 62
       7
  5
17C
 10
-88.32743284
 20
69.15253169
 30
0.0
  0
VERTEX
  8
0
  6
CONTINUOUS
 62
       7
  5
17D
 10
-88.30835202
 20
69.0856893
 30
0.0
  0
VERTEX
  8
0
  6
CONTINUOUS
 62
       7
  5
17E
 10
-88.29099872
 20
69.01817658
 30
0.0
  0
VERTEX
  8
0
  6
CONTINUOUS
 62
       7
  5
17F
 10
-88.27532215
 20
68.9501414
 30
0.0
  0
VERTEX
  8
0
  6
CONTINUOUS
 62
       7
  5
180
 10
-88.26127158
 20
68.88173162
 30
0.0
  0
VERTEX
  8
0
  6
CONTINUOUS
 62
       7
  5
181
 10
-88.24879624
 20
68.81309511
 30
0.0
  0
VERTEX
  8
0
  6
CONTINUOUS
 62
       7
  5
182
 10
-88.23784538
 20
68.74437971
 30
0.0
  0
VERTEX
  8
0
  6
CONTINUOUS
 62
       7
  5
183
 10
-88.22836824
 20
68.67573331
 30
0.0
  0
VERTEX
  8
0
  6
CONTINUOUS
 62
       7
  5
184
 10
-88.22031407
 20
68.60730376
 30
0.0
  0
VERTEX
  8
0
  6
CONTINUOUS
 62
       7
  5
185
 10
-88.21363211
 20
68.53923892
 30
0.0
  0
SEQEND
  8
0
  6
CONTINUOUS
 62
       7
  5
186
  0
POLYLINE
  8
0
  6
CONTINUOUS
 62
       7
  5
29
 66
       1
 10
0.0
 20
0.0
 30
0.0
  0
VERTEX
  8
0
  6
CONTINUOUS
 62
       7
  5
187
 10
22.3363635
 20
68.53923892
 30
0.0
  0
VERTEX
  8
0
  6
CONTINUOUS
 62
       7
  5
188
 10
22.34355221
 20
68.61288566
 30
0.0
  0
VERTEX
  8
0
  6
CONTINUOUS
 62
       7
  5
189
 10
22.35219455
 20
68.68699863
 30
0.0
  0
VERTEX
  8
0
  6
CONTINUOUS
 62
       7
  5
18A
 10
22.36236886
 20
68.76139757
 30
0.0
  0
VERTEX
  8
0
  6
CONTINUOUS
 62
       7
  5
18B
 10
22.37415351
 20
68.83590216
 30
0.0
  0
VERTEX
  8
0
  6
CONTINUOUS
 62
       7
  5
18C
 10
22.38762684
 20
68.91033212
 30
0.0
  0
VERTEX
  8
0
  6
CONTINUOUS
 62
       7
  5
18D
 10
22.40286722
 20
68.98450715
 30
0.0
  0
VERTEX
  8
0
  6
CONTINUOUS
 62
       7
  5
18E
 10
22.419953
 20
69.05824697
 30
0.0
  0
VERTEX
  8
0
  6
CONTINUOUS
 62
       7
  5
18F
 10
22.43896254
 20
69.13137127
 30
0.0
  0
VERTEX
  8
0
  6
CONTINUOUS
 62
       7
  5
190
 10
22.45997419
 20
69.20369977
 30
0.0
  0
VERTEX
  8
0
  6
CONTINUOUS
 62
       7
  5
191
 10
22.48306631
 20
69.27505218
 30
0.0
  0
VERTEX
  8
0
  6
CONTINUOUS
 62
       7
  5
192
 10
22.50831726
 20
69.34524819
 30
0.0
  0
VERTEX
  8
0
  6
CONTINUOUS
 62
       7
  5
193
 10
22.53580538
 20
69.41410753
 30
0.0
  0
VERTEX
  8
0
  6
CONTINUOUS
 62
       7
  5
194
 10
22.56560905
 20
69.48144989
 30
0.0
  0
VERTEX
  8
0
  6
CONTINUOUS
 62
       7
  5
195
 10
22.5978066
 20
69.54709499
 30
0.0
  0
VERTEX
  8
0
  6
CONTINUOUS
 62
       7
  5
196
 10
22.63247641
 20
69.61086252
 30
0.0
  0
VERTEX
  8
0
  6
CONTINUOUS
 62
       7
  5
197
 10
22.66969682
 20
69.67257221
 30
0.0
  0
VERTEX
  8
0
  6
CONTINUOUS
 62
       7
  5
198
 10
22.76767667
 20
69.81020646
 30
0.0
  0
VERTEX
  8
0
  6
CONTINUOUS
 62
       7
  5
199
 10
22.87836063
 20
69.93589198
 30
0.0
  0
VERTEX
  8
0
  6
CONTINUOUS
 62
       7
  5
19A
 10
23.00089958
 20
70.0500425
 30
0.0
  0
VERTEX
  8
0
  6
CONTINUOUS
 62
       7
  5
19B
 10
23.13444441
 20
70.15307179
 30
0.0
  0
VERTEX
  8
0
  6
CONTINUOUS
 62
       7
  5
19C
 10
23.278146
 20
70.24539359
 30
0.0
  0
VERTEX
  8
0
  6
CONTINUOUS
 62
       7
  5
19D
 10
23.43115523
 20
70.32742166
 30
0.0
  0
VERTEX
  8
0
  6
CONTINUOUS
 62
       7
  5
19E
 10
23.59262301
 20
70.39956974
 30
0.0
  0
VERTEX
  8
0
  6
CONTINUOUS
 62
       7
  5
19F
 10
23.76170021
 20
70.46225159
 30
0.0
  0
VERTEX
  8
0
  6
CONTINUOUS
 62
       7
  5
1A0
 10
23.93753771
 20
70.51588096
 30
0.0
  0
VERTEX
  8
0
  6
CONTINUOUS
 62
       7
  5
1A1
 10
24.11928642
 20
70.5608716
 30
0.0
  0
VERTEX
  8
0
  6
CONTINUOUS
 62
       7
  5
1A2
 10
24.3060972
 20
70.59763726
 30
0.0
  0
VERTEX
  8
0
  6
CONTINUOUS
 62
       7
  5
1A3
 10
24.49712096
 20
70.62659169
 30
0.0
  0
VERTEX
  8
0
  6
CONTINUOUS
 62
       7
  5
1A4
 10
24.69150856
 20
70.64814865
 30
0.0
  0
VERTEX
  8
0
  6
CONTINUOUS
 62
       7
  5
1A5
 10
24.88841091
 20
70.66272188
 30
0.0
  0
VERTEX
  8
0
  6
CONTINUOUS
 62
       7
  5
1A6
 10
25.08697889
 20
70.67072514
 30
0.0
  0
VERTEX
  8
0
  6
CONTINUOUS
 62
       7
  5
1A7
 10
25.28636338
 20
70.67257217
 30
0.0
  0
VERTEX
  8
0
  6
CONTINUOUS
 62
       7
  5
1A8
 10
25.49241561
 20
70.6682803
 30
0.0
  0
VERTEX
  8
0
  6
CONTINUOUS
 62
       7
  5
1A9
 10
25.6977457
 20
70.65739693
 30
0.0
  0
VERTEX
  8
0
  6
CONTINUOUS
 62
       7
  5
1AA
 10
25.90141286
 20
70.63952264
 30
0.0
  0
VERTEX
  8
0
  6
CONTINUOUS
 62
       7
  5
1AB
 10
26.10247628
 20
70.61425797
 30
0.0
  0
VERTEX
  8
0
  6
CONTINUOUS
 62
       7
  5
1AC
 10
26.29999519
 20
70.58120351
 30
0.0
  0
VERTEX
  8
0
  6
CONTINUOUS
 62
       7
  5
1AD
 10
26.49302877
 20
70.53995981
 30
0.0
  0
VERTEX
  8
0
  6
CONTINUOUS
 62
       7
  5
1AE
 10
26.68063623
 20
70.49012743
 30
0.0
  0
VERTEX
  8
0
  6
CONTINUOUS
 62
       7
  5
1AF
 10
26.86187678
 20
70.43130695
 30
0.0
  0
VERTEX
  8
0
  6
CONTINUOUS
 62
       7
  5
1B0
 10
27.03580961
 20
70.36309892
 30
0.0
  0
VERTEX
  8
0
  6
CONTINUOUS
 62
       7
  5
1B1
 10
27.20149394
 20
70.28510391
 30
0.0
  0
VERTEX
  8
0
  6
CONTINUOUS
 62
       7
  5
1B2
 10
27.35798896
 20
70.19692249
 30
0.0
  0
VERTEX
  8
0
  6
CONTINUOUS
 62
       7
  5
1B3
 10
27.50435388
 20
70.09815521
 30
0.0
  0
VERTEX
  8
0
  6
CONTINUOUS
 62
       7
  5
1B4
 10
27.6396479
 20
69.98840265
 30
0.0
  0
VERTEX
  8
0
  6
CONTINUOUS
 62
       7
  5
1B5
 10
27.76293023
 20
69.86726536
 30
0.0
  0
VERTEX
  8
0
  6
CONTINUOUS
 62
       7
  5
1B6
 10
27.87326006
 20
69.73434392
 30
0.0
  0
VERTEX
  8
0
  6
CONTINUOUS
 62
       7
  5
1B7
 10
27.96969661
 20
69.58923888
 30
0.0
  0
VERTEX
  8
0
  6
CONTINUOUS
 62
       7
  5
1B8
 10
28.00229068
 20
69.53122965
 30
0.0
  0
VERTEX
  8
0
  6
CONTINUOUS
 62
       7
  5
1B9
 10
28.03280206
 20
69.47151487
 30
0.0
  0
VERTEX
  8
0
  6
CONTINUOUS
 62
       7
  5
1BA
 10
28.0612815
 20
69.41024241
 30
0.0
  0
VERTEX
  8
0
  6
CONTINUOUS
 62
       7
  5
1BB
 10
28.08777975
 20
69.34756017
 30
0.0
  0
VERTEX
  8
0
  6
CONTINUOUS
 62
       7
  5
1BC
 10
28.11234755
 20
69.28361603
 30
0.0
  0
VERTEX
  8
0
  6
CONTINUOUS
 62
       7
  5
1BD
 10
28.13503565
 20
69.21855786
 30
0.0
  0
VERTEX
  8
0
  6
CONTINUOUS
 62
       7
  5
1BE
 10
28.15589478
 20
69.15253355
 30
0.0
  0
VERTEX
  8
0
  6
CONTINUOUS
 62
       7
  5
1BF
 10
28.17497569
 20
69.08569097
 30
0.0
  0
VERTEX
  8
0
  6
CONTINUOUS
 62
       7
  5
1C0
 10
28.19232914
 20
69.01817803
 30
0.0
  0
VERTEX
  8
0
  6
CONTINUOUS
 62
       7
  5
1C1
 10
28.20800586
 20
68.95014258
 30
0.0
  0
VERTEX
  8
0
  6
CONTINUOUS
 62
       7
  5
1C2
 10
28.22205659
 20
68.88173253
 30
0.0
  0
VERTEX
  8
0
  6
CONTINUOUS
 62
       7
  5
1C3
 10
28.23453209
 20
68.81309574
 30
0.0
  0
VERTEX
  8
0
  6
CONTINUOUS
 62
       7
  5
1C4
 10
28.24548309
 20
68.7443801
 30
0.0
  0
VERTEX
  8
0
  6
CONTINUOUS
 62
       7
  5
1C5
 10
28.25496035
 20
68.6757335
 30
0.0
  0
VERTEX
  8
0
  6
CONTINUOUS
 62
       7
  5
1C6
 10
28.2630146
 20
68.60730381
 30
0.0
  0
VERTEX
  8
0
  6
CONTINUOUS
 62
       7
  5
1C7
 10
28.2696966
 20
68.53923892
 30
0.0
  0
SEQEND
  8
0
  6
CONTINUOUS
 62
       7
  5
1C8
  0
LINE
  8
0
  6
CONTINUOUS
 62
       7
  5
2A
 10
-94.18029854
 20
25.68924062
 30
0.0
 11
-67.18029961
 21
25.68924062
 31
0.0
  0
LINE
  8
0
  6
CENTER
 62
       2
  5
2C
 10
12.80303055
 20
78.18923854
 30
0.0
 11
12.80303055
 21
-20.89409086
 31
0.0
  0
LINE
  8
0
  6
CONTINUOUS
 62
       7
  5
2D
 10
31.30302981
 20
70.68923884
 30
0.0
 11
31.30302981
 21
-10.71075793
 31
0.0
  0
LINE
  8
0
  6
CONTINUOUS
 62
       7
  5
2E
 10
-5.69696872
 20
70.68923884
 30
0.0
 11
-5.69696872
 21
-10.71075793
 31
0.0
  0
LINE
  8
0
  6
CONTINUOUS
 62
       7
  5
2F
 10
82.80302776
 20
70.68923884
 30
0.0
 11
82.80302776
 21
-10.71075793
 31
0.0
  0
LINE
  8
0
  6
CONTINUOUS
 62
       7
  5
30
 10
-67.18029961
 20
70.68923884
 30
0.0
 11
-67.18029961
 21
-10.71075793
 31
0.0
  0
LINE
  8
0
  6
CONTINUOUS
 62
       7
  5
31
 10
109.80302669
 20
70.68923884
 30
0.0
 11
109.80302669
 21
-10.71075793
 31
0.0
  0
LINE
  8
0
  6
CONTINUOUS
 62
       7
  5
32
 10
-94.18029854
 20
70.68923884
 30
0.0
 11
-94.18029854
 21
-10.71075793
 31
0.0
  0
LINE
  8
0
  6
CONTINUOUS
 62
       7
  5
33
 10
-94.18029854
 20
-10.71075793
 30
0.0
 11
-67.18029961
 21
-10.71075793
 31
0.0
  0
LINE
  8
0
  6
CONTINUOUS
 62
       7
  5
34
 10
-5.69696872
 20
-10.71075793
 30
0.0
 11
31.30302981
 21
-10.71075793
 31
0.0
  0
LINE
  8
0
  6
CONTINUOUS
 62
       7
  5
35
 10
82.30302778
 20
-10.71075793
 30
0.0
 11
110.30302667
 21
-10.71075793
 31
0.0
  0
LINE
  8
0
  6
CENTER
 62
       2
  5
36
 10
-80.68029907
 20
73.58923872
 30
0.0
 11
-80.68029907
 21
-13.0274245
 31
0.0
  0
LINE
  8
0
  6
CENTER
 62
       2
  5
37
 10
96.30302723
 20
73.07257207
 30
0.0
 11
96.30302723
 21
-14.77742443
 31
0.0
  0
LINE
  8
0
  6
CONTINUOUS
 62
       7
  5
38
 10
-5.69696872
 20
-45.71075614
 30
0.0
 11
31.30302981
 21
-45.71075614
 31
0.0
  0
LINE
  8
0
  6
CONTINUOUS
 62
       7
  5
39
 10
-5.69696872
 20
-72.71075507
 30
0.0
 11
31.30302981
 21
-72.71075507
 31
0.0
  0
LINE
  8
0
  6
CONTINUOUS
 62
       7
  5
3A
 10
-5.69696872
 20
-45.71075614
 30
0.0
 11
-5.69696872
 21
-72.71075507
 31
0.0
  0
LINE
  8
0
  6
CONTINUOUS
 62
       7
  5
3B
 10
31.30302981
 20
-45.71075614
 30
0.0
 11
31.30302981
 21
-72.71075507
 31
0.0
  0
LINE
  8
0
  6
CONTINUOUS
 62
       7
  5
3C
 10
-5.69696872
 20
25.68924062
 30
0.0
 11
31.30302981
 21
25.68924062
 31
0.0
  0
LINE
  8
0
  6
CONTINUOUS
 62
       7
  5
3D
 10
82.80302776
 20
25.68924062
 30
0.0
 11
109.80302669
 21
25.68924062
 31
0.0
  0
LINE
  8
0
  6
CENTER
 62
       2
  5
3E
 10
-84.34696559
 20
4.28924147
 30
0.0
 11
-77.21363254
 21
4.28924147
 31
0.0
  0
LINE
  8
0
  6
CENTER
 62
       2
  5
3F
 10
-84.91363224
 20
14.28924108
 30
0.0
 11
-77.03029922
 21
14.28924108
 31
0.0
  0
LINE
  8
0
  6
CENTER
 62
       2
  5
40
 10
26.56969667
 20
9.28924128
 30
0.0
 11
35.40302965
 21
9.28924128
 31
0.0
  0
LINE
  8
0
  6
PHANTOM
 62
       2
  5
42
 10
82.80302776
 20
14.28924108
 30
0.0
 11
92.7863607
 21
14.28924108
 31
0.0
  0
LINE
  8
0
  6
PHANTOM
 62
       2
  5
43
 10
100.46969373
 20
-5.71075813
 30
0.0
 11
109.80302669
 21
-5.71075813
 31
0.0
  0
LINE
  8
0
  6
CENTER
 62
       2
  5
44
 10
22.00303018
 20
-48.71075602
 30
0.0
 11
28.45302992
 21
-48.71075602
 31
0.0
  0
LINE
  8
0
  6
CENTER
 62
       2
  5
45
 10
-3.04696882
 20
-69.71075519
 30
0.0
 11
4.41969755
 21
-69.71075519
 31
0.0
  0
LINE
  8
0
  6
CENTER
 62
       2
  5
46
 10
25.30303005
 20
-45.32742282
 30
0.0
 11
25.30303005
 21
-51.92742256
 31
0.0
  0
LINE
  8
0
  6
CENTER
 62
       2
  5
47
 10
0.30303104
 20
-66.24408866
 30
0.0
 11
0.30303104
 21
-73.09408839
 31
0.0
  0
LINE
  8
0
  6
PHANTOM
 62
       2
  5
48
 10
87.30302759
 20
19.60590753
 30
0.0
 11
87.30302759
 21
8.7892413
 31
0.0
  0
LINE
  8
0
  6
PHANTOM
 62
       2
  5
49
 10
105.30302687
 20
-0.72742499
 30
0.0
 11
105.30302687
 21
-9.97742462
 31
0.0
  0
LINE
  8
0
  6
CENTER
 62
       2
  5
4A
 10
-71.68029943
 20
17.58924095
 30
0.0
 11
-71.68029943
 21
10.83924121
 31
0.0
  0
LINE
  8
0
  6
CENTER
 62
       2
  5
4B
 10
-89.68029872
 20
-2.64409158
 30
0.0
 11
-89.68029872
 21
-9.07742466
 31
0.0
  0
LINE
  8
0
  6
CENTER
 62
       2
  5
4C
 10
-93.01363192
 20
-5.71075813
 30
0.0
 11
-86.36363218
 21
-5.71075813
 31
0.0
  0
LINE
  8
0
  6
CENTER
 62
       2
  5
4D
 10
12.80303055
 20
-30.07742343
 30
0.0
 11
12.80303055
 21
-88.5774211
 31
0.0
  0
LINE
  8
0
  6
CONTINUOUS
 62
       7
  5
4E
 10
-94.18029854
 20
70.68923884
 30
0.0
 11
-67.18029961
 21
70.68923884
 31
0.0
  0
LINE
  8
0
  6
CONTINUOUS
 62
       7
  5
4F
 10
-5.69696872
 20
70.68923884
 30
0.0
 11
31.30302981
 21
70.68923884
 31
0.0
  0
LINE
  8
0
  6
CONTINUOUS
 62
       7
  5
50
 10
82.80302776
 20
70.68923884
 30
0.0
 11
109.80302669
 21
70.68923884
 31
0.0
  0
LINE
  8
0
  6
CONTINUOUS
 62
       7
  5
51
 10
21.80303019
 20
67.88923895
 30
0.0
 11
31.30302981
 21
67.88923895
 31
0.0
  0
LINE
  8
0
  6
CONTINUOUS
 62
       7
  5
52
 10
-94.18029854
 20
67.88923895
 30
0.0
 11
-87.6802988
 21
67.88923895
 31
0.0
  0
LINE
  8
0
  6
CONTINUOUS
 62
       7
  5
53
 10
82.80302776
 20
67.88923895
 30
0.0
 11
89.30302751
 21
67.88923895
 31
0.0
  0
LINE
  8
0
  6
CENTER
 62
       2
  5
54
 10
25.30303005
 20
73.28923873
 30
0.0
 11
25.30303005
 21
65.93923903
 31
0.0
  0
LINE
  8
0
  6
CONTINUOUS
 62
       7
  5
55
 10
21.80303019
 20
70.68923884
 30
0.0
 11
21.80303019
 21
67.88923895
 31
0.0
  0
LINE
  8
0
  6
CONTINUOUS
 62
       2
  5
56
 10
85.80302764
 20
73.28923873
 30
0.0
 11
85.80302764
 21
66.28923901
 31
0.0
  0
LINE
  8
0
  6
CENTER
 62
       2
  5
57
 10
-91.18029866
 20
73.28923873
 30
0.0
 11
-91.18029866
 21
65.23923905
 31
0.0
  0
LINE
  8
0
  6
CONTINUOUS
 62
       7
  5
58
 10
89.30302751
 20
70.68923884
 30
0.0
 11
89.30302751
 21
67.88923895
 31
0.0
  0
LINE
  8
0
  6
CONTINUOUS
 62
       7
  5
59
 10
-87.6802988
 20
70.68923884
 30
0.0
 11
-87.6802988
 21
67.88923895
 31
0.0
  0
LINE
  8
0
  6
CENTER
 62
       2
  5
5A
 10
-32.9136343
 20
53.68923951
 30
0.0
 11
-3.13030215
 21
53.68923951
 31
0.0
  0
LINE
  8
0
  6
CONTINUOUS
 62
       7
  5
5B
 10
-8.19696862
 20
56.68923939
 30
0.0
 11
-5.69696872
 21
56.68923939
 31
0.0
  0
LINE
  8
0
  6
CONTINUOUS
 62
       7
  5
5C
 10
-8.19696862
 20
50.68923963
 30
0.0
 11
-5.69696872
 21
50.68923963
 31
0.0
  0
LINE
  8
0
  6
CONTINUOUS
 62
       7
  5
5D
 10
-8.6969686
 20
56.18923941
 30
0.0
 11
-8.6969686
 21
51.18923961
 31
0.0
  0
LINE
  8
0
  6
CONTINUOUS
 62
       7
  5
5E
 10
-23.696968
 20
54.98923946
 30
0.0
 11
-16.71645533
 21
54.98923946
 31
0.0
  0
LINE
  8
0
  6
CONTINUOUS
 62
       7
  5
5F
 10
-23.696968
 20
52.38923956
 30
0.0
 11
-17.6627779
 21
52.38923956
 31
0.0
  0
LINE
  8
0
  6
CONTINUOUS
 62
       7
  5
60
 10
-14.71645533
 20
54.98923946
 30
0.0
 11
-8.6969686
 21
54.98923946
 31
0.0
  0
LINE
  8
0
  6
CONTINUOUS
 62
       7
  5
61
 10
-15.6627779
 20
52.38923956
 30
0.0
 11
-8.6969686
 21
52.38923956
 31
0.0
  0
LINE
  8
0
  6
CONTINUOUS
 62
       7
  5
62
 10
-23.696968
 20
54.98923946
 30
0.0
 11
-23.696968
 21
52.38923956
 31
0.0
  0
LINE
  8
0
  6
CONTINUOUS
 62
       7
  5
63
 10
-30.69696773
 20
54.18923949
 30
0.0
 11
-23.696968
 21
54.18923949
 31
0.0
  0
LINE
  8
0
  6
CONTINUOUS
 62
       7
  5
64
 10
-30.69696773
 20
53.18923953
 30
0.0
 11
-23.696968
 21
53.18923953
 31
0.0
  0
LINE
  8
0
  6
CONTINUOUS
 62
       7
  5
65
 10
-30.69696773
 20
54.18923949
 30
0.0
 11
-30.69696773
 21
53.18923953
 31
0.0
  0
LINE
  8
0
  6
CENTER
 62
       2
  5
66
 10
-87.13029882
 20
53.68923951
 30
0.0
 11
-74.26363266
 21
53.68923951
 31
0.0
  0
LINE
  8
0
  6
CONTINUOUS
 62
       7
  5
67
 10
-83.18029897
 20
56.18923941
 30
0.0
 11
-78.18029917
 21
56.18923941
 31
0.0
  0
LINE
  8
0
  6
CONTINUOUS
 62
       7
  5
68
 10
-83.18029897
 20
51.18923961
 30
0.0
 11
-78.18029917
 21
51.18923961
 31
0.0
  0
LINE
  8
0
  6
CONTINUOUS
 62
       7
  5
69
 10
82.80302776
 20
68.58923892
 30
0.0
 11
88.80302753
 21
68.58923892
 31
0.0
  0
LINE
  8
0
  6
CONTINUOUS
 62
       7
  5
6A
 10
88.80302753
 20
68.58923892
 30
0.0
 11
88.80302753
 21
67.88923895
 31
0.0
  0
LINE
  8
0
  6
CONTINUOUS
 62
       7
  5
6B
 10
-94.18029854
 20
68.58923892
 30
0.0
 11
-88.18029878
 21
68.58923892
 31
0.0
  0
LINE
  8
0
  6
CONTINUOUS
 62
       7
  5
6C
 10
-88.18029878
 20
68.58923892
 30
0.0
 11
-88.18029878
 21
67.88923895
 31
0.0
  0
LINE
  8
0
  6
CONTINUOUS
 62
       7
  5
6D
 10
22.30303017
 20
68.58923892
 30
0.0
 11
28.30302993
 21
68.58923892
 31
0.0
  0
LINE
  8
0
  6
CONTINUOUS
 62
       7
  5
6E
 10
28.30302993
 20
68.58923892
 30
0.0
 11
28.30302993
 21
67.88923895
 31
0.0
  0
LINE
  8
0
  6
CONTINUOUS
 62
       7
  5
6F
 10
22.3363635
 20
68.58923892
 30
0.0
 11
22.3363635
 21
67.88923895
 31
0.0
  0
LINE
  8
0
  6
CONTINUOUS
 62
       7
  5
70
 10
87.30302759
 20
71.6892388
 30
0.0
 11
105.30302687
 21
71.6892388
 31
0.0
  0
LINE
  8
0
  6
CONTINUOUS
 62
       7
  5
71
 10
86.30302762
 20
70.68923884
 30
0.0
 11
87.30302759
 21
71.6892388
 31
0.0
  0
LINE
  8
0
  6
CONTINUOUS
 62
       7
  5
72
 10
105.30302687
 20
71.6892388
 30
0.0
 11
106.30302683
 21
70.68923884
 31
0.0
  0
LINE
  8
0
  6
CONTINUOUS
 62
       7
  5
73
 10
3.8030309
 20
71.6892388
 30
0.0
 11
21.80303019
 21
71.6892388
 31
0.0
  0
LINE
  8
0
  6
CONTINUOUS
 62
       7
  5
74
 10
21.80303019
 20
71.6892388
 30
0.0
 11
22.80303015
 21
70.68923884
 31
0.0
  0
LINE
  8
0
  6
CONTINUOUS
 62
       7
  5
75
 10
2.80303094
 20
70.68923884
 30
0.0
 11
3.8030309
 21
71.6892388
 31
0.0
  0
LINE
  8
0
  6
CONTINUOUS
 62
       7
  5
76
 10
-89.68029872
 20
71.6892388
 30
0.0
 11
-71.68029943
 21
71.6892388
 31
0.0
  0
LINE
  8
0
  6
CONTINUOUS
 62
       7
  5
77
 10
-71.68029943
 20
71.6892388
 30
0.0
 11
-70.68029947
 21
70.68923884
 31
0.0
  0
LINE
  8
0
  6
CONTINUOUS
 62
       7
  5
78
 10
-90.68029868
 20
70.68923884
 30
0.0
 11
-89.68029872
 21
71.6892388
 31
0.0
  0
LINE
  8
0
  6
CONTINUOUS
 62
       7
  5
79
 10
-8.6969686
 20
-54.2107558
 30
0.0
 11
-8.6969686
 21
-64.21075541
 31
0.0
  0
LINE
  8
0
  6
CONTINUOUS
 62
       7
  5
7A
 10
-8.6969686
 20
-54.2107558
 30
0.0
 11
-5.69696872
 21
-54.2107558
 31
0.0
  0
LINE
  8
0
  6
CONTINUOUS
 62
       7
  5
7B
 10
-8.6969686
 20
-64.21075541
 30
0.0
 11
-5.69696872
 21
-64.21075541
 31
0.0
  0
LINE
  8
0
  6
CONTINUOUS
 62
       7
  5
7C
 10
-16.07631525
 20
-60.91075554
 30
0.0
 11
-8.6969686
 21
-60.91075554
 31
0.0
  0
LINE
  8
0
  6
CENTER
 62
       2
  5
7D
 10
-32.9136343
 20
-62.21075549
 30
0.0
 11
-3.13030215
 21
-62.21075549
 31
0.0
  0
LINE
  8
0
  6
CONTINUOUS
 62
       7
  5
7E
 10
-17.02263782
 20
-63.51075543
 30
0.0
 11
-8.6969686
 21
-63.51075543
 31
0.0
  0
LINE
  8
0
  6
CONTINUOUS
 62
       7
  5
7F
 10
-23.696968
 20
-60.91075554
 30
0.0
 11
-18.07631525
 21
-60.91075554
 31
0.0
  0
LINE
  8
0
  6
CONTINUOUS
 62
       7
  5
80
 10
-23.696968
 20
-60.91075554
 30
0.0
 11
-23.696968
 21
-63.51075543
 31
0.0
  0
LINE
  8
0
  6
CONTINUOUS
 62
       7
  5
81
 10
-30.69696773
 20
-61.71075551
 30
0.0
 11
-23.696968
 21
-61.71075551
 31
0.0
  0
LINE
  8
0
  6
CONTINUOUS
 62
       7
  5
82
 10
-30.69696773
 20
-61.71075551
 30
0.0
 11
-30.69696773
 21
-62.71075547
 31
0.0
  0
LINE
  8
0
  6
CONTINUOUS
 62
       7
  5
83
 10
-30.69696773
 20
-62.71075547
 30
0.0
 11
-23.696968
 21
-62.71075547
 31
0.0
  0
LINE
  8
0
  6
CONTINUOUS
 62
       7
  5
84
 10
-23.696968
 20
-63.51075543
 30
0.0
 11
-19.02263782
 21
-63.51075543
 31
0.0
  0
LINE
  8
0
  6
CONTINUOUS
 62
       7
  5
85
 10
-13.89249393
 20
-54.91075578
 30
0.0
 11
-8.6969686
 21
-54.91075578
 31
0.0
  0
LINE
  8
0
  6
CONTINUOUS
 62
       7
  5
86
 10
-14.83881651
 20
-57.51075567
 30
0.0
 11
-8.6969686
 21
-57.51075567
 31
0.0
  0
LINE
  8
0
  6
CONTINUOUS
 62
       7
  5
87
 10
-23.696968
 20
-54.91075578
 30
0.0
 11
-15.89249393
 21
-54.91075578
 31
0.0
  0
LINE
  8
0
  6
CONTINUOUS
 62
       7
  5
88
 10
-30.69696773
 20
-55.71075574
 30
0.0
 11
-23.696968
 21
-55.71075574
 31
0.0
  0
LINE
  8
0
  6
CONTINUOUS
 62
       7
  5
89
 10
-23.696968
 20
-54.91075578
 30
0.0
 11
-23.696968
 21
-57.51075567
 31
0.0
  0
LINE
  8
0
  6
CONTINUOUS
 62
       7
  5
8A
 10
-30.69696773
 20
-55.71075574
 30
0.0
 11
-30.69696773
 21
-56.7107557
 31
0.0
  0
LINE
  8
0
  6
CENTER
 62
       2
  5
8B
 10
-32.9136343
 20
-56.21075572
 30
0.0
 11
-3.13030215
 21
-56.21075572
 31
0.0
  0
LINE
  8
0
  6
CONTINUOUS
 62
       7
  5
8C
 10
-30.69696773
 20
-56.7107557
 30
0.0
 11
-23.696968
 21
-56.7107557
 31
0.0
  0
LINE
  8
0
  6
CONTINUOUS
 62
       7
  5
8D
 10
-23.696968
 20
-57.51075567
 30
0.0
 11
-16.83881651
 21
-57.51075567
 31
0.0
  0
LINE
  8
0
  6
CENTER
 62
       2
  5
8E
 10
-84.34696559
 20
-5.71075813
 30
0.0
 11
-76.99696589
 21
-5.71075813
 31
0.0
  0
LINE
  8
0
  6
CENTER
 62
       2
  5
8F
 10
-75.24696596
 20
14.28924108
 30
0.0
 11
-69.0469662
 21
14.28924108
 31
0.0
  0
LINE
  8
0
  6
CENTER
 62
       2
  5
90
 10
27.23636331
 20
-0.71075833
 30
0.0
 11
34.95302967
 21
-0.71075833
 31
0.0
  0
LINE
  8
0
  6
PHANTOM
 62
       4
  5
91
 10
-94.68029852
 20
-12.71075785
 30
0.0
 11
-66.68029963
 21
-12.71075785
 31
0.0
  0
LINE
  8
0
  6
PHANTOM
 62
       4
  5
92
 10
-108.68029796
 20
-19.71075757
 30
0.0
 11
-98.68029836
 21
-19.71075757
 31
0.0
  0
LINE
  8
0
  6
PHANTOM
 62
       4
  5
93
 10
-98.68029836
 20
-17.71075765
 30
0.0
 11
-98.68029836
 21
-19.71075757
 31
0.0
  0
LINE
  8
0
  6
PHANTOM
 62
       4
  5
94
 10
-52.68030019
 20
-17.71075765
 30
0.0
 11
-52.68030019
 21
-19.71075757
 31
0.0
  0
LINE
  8
0
  6
PHANTOM
 62
       4
  5
95
 10
-65.68029967
 20
-13.71075781
 30
0.0
 11
-65.68029967
 21
-16.71075769
 31
0.0
  0
LINE
  8
0
  6
PHANTOM
 62
       4
  5
96
 10
-95.68029848
 20
-13.71075781
 30
0.0
 11
-95.68029848
 21
-16.71075769
 31
0.0
  0
LINE
  8
0
  6
PHANTOM
 62
       4
  5
97
 10
-108.68029796
 20
-17.71075765
 30
0.0
 11
-98.68029836
 21
-17.71075765
 31
0.0
  0
LINE
  8
0
  6
PHANTOM
 62
       4
  5
98
 10
-62.68029979
 20
-19.71075757
 30
0.0
 11
-52.68030019
 21
-19.71075757
 31
0.0
  0
LINE
  8
0
  6
PHANTOM
 62
       4
  5
99
 10
-62.68029979
 20
-17.71075765
 30
0.0
 11
-52.68030019
 21
-17.71075765
 31
0.0
  0
LINE
  8
0
  6
PHANTOM
 62
       4
  5
9A
 10
-97.6802984
 20
-13.71075781
 30
0.0
 11
-97.6802984
 21
-16.71075769
 31
0.0
  0
LINE
  8
0
  6
PHANTOM
 62
       4
  5
9B
 10
-63.68029975
 20
-13.71075781
 30
0.0
 11
-63.68029975
 21
-16.71075769
 31
0.0
  0
LINE
  8
0
  6
CENTER
 62
       4
  5
9C
 10
-103.18029818
 20
-15.34409108
 30
0.0
 11
-103.18029818
 21
-22.16075747
 31
0.0
  0
LINE
  8
0
  6
CENTER
 62
       4
  5
9D
 10
-58.18029997
 20
-15.34409108
 30
0.0
 11
-58.18029997
 21
-22.16075747
 31
0.0
  0
LINE
  8
0
  6
PHANTOM
 62
       4
  5
9E
 10
68.30302834
 20
-19.71075757
 30
0.0
 11
78.30302794
 21
-19.71075757
 31
0.0
  0
LINE
  8
0
  6
PHANTOM
 62
       4
  5
9F
 10
68.30302834
 20
-17.71075765
 30
0.0
 11
68.30302834
 21
-19.71075757
 31
0.0
  0
LINE
  8
0
  6
PHANTOM
 62
       4
  5
A0
 10
68.30302834
 20
-17.71075765
 30
0.0
 11
78.30302794
 21
-17.71075765
 31
0.0
  0
LINE
  8
0
  6
PHANTOM
 62
       4
  5
A1
 10
79.3030279
 20
-13.71075781
 30
0.0
 11
79.3030279
 21
-16.71075769
 31
0.0
  0
LINE
  8
0
  6
PHANTOM
 62
       4
  5
A2
 10
81.30302782
 20
-13.71075781
 30
0.0
 11
81.30302782
 21
-16.71075769
 31
0.0
  0
LINE
  8
0
  6
PHANTOM
 62
       4
  5
A3
 10
82.30302778
 20
-12.71075785
 30
0.0
 11
110.30302667
 21
-12.71075785
 31
0.0
  0
LINE
  8
0
  6
PHANTOM
 62
       4
  5
A4
 10
124.30302611
 20
-17.71075765
 30
0.0
 11
124.30302611
 21
-19.71075757
 31
0.0
  0
LINE
  8
0
  6
PHANTOM
 62
       4
  5
A5
 10
111.30302663
 20
-13.71075781
 30
0.0
 11
111.30302663
 21
-16.71075769
 31
0.0
  0
LINE
  8
0
  6
PHANTOM
 62
       4
  5
A6
 10
114.30302651
 20
-19.71075757
 30
0.0
 11
124.30302611
 21
-19.71075757
 31
0.0
  0
LINE
  8
0
  6
PHANTOM
 62
       4
  5
A7
 10
114.30302651
 20
-17.71075765
 30
0.0
 11
124.30302611
 21
-17.71075765
 31
0.0
  0
LINE
  8
0
  6
PHANTOM
 62
       4
  5
A8
 10
113.30302655
 20
-13.71075781
 30
0.0
 11
113.30302655
 21
-16.71075769
 31
0.0
  0
LINE
  8
0
  6
CENTER
 62
       4
  5
A9
 10
73.80302812
 20
-15.34409108
 30
0.0
 11
73.80302812
 21
-22.16075747
 31
0.0
  0
LINE
  8
0
  6
CENTER
 62
       4
  5
AA
 10
118.80302633
 20
-15.34409108
 30
0.0
 11
118.80302633
 21
-22.16075747
 31
0.0
  0
LINE
  8
0
  6
CENTER
 62
       2
  5
AB
 10
-10.24696854
 20
-59.2107556
 30
0.0
 11
33.40302973
 21
-59.2107556
 31
0.0
  0
LINE
  8
0
  6
PHANTOM
 62
       4
  5
AC
 10
0.30303104
 20
-87.21075449
 30
0.0
 11
25.30303005
 21
-87.21075449
 31
0.0
  0
LINE
  8
0
  6
PHANTOM
 62
       4
  5
AD
 10
0.30303104
 20
-31.21075672
 30
0.0
 11
25.30303005
 21
-31.21075672
 31
0.0
  0
LINE
  8
0
  6
CENTER
 62
       4
  5
AE
 10
7.85303074
 20
-36.7107565
 30
0.0
 11
17.15303037
 21
-36.7107565
 31
0.0
  0
LINE
  8
0
  6
CENTER
 62
       4
  5
AF
 10
8.46969738
 20
-81.71075471
 30
0.0
 11
16.90303038
 21
-81.71075471
 31
0.0
  0
LINE
  8
0
  6
PHANTOM
 62
       4
  5
B0
 10
-5.69696872
 20
-74.21075501
 30
0.0
 11
31.30302981
 21
-74.21075501
 31
0.0
  0
LINE
  8
0
  6
PHANTOM
 62
       4
  5
B1
 10
-5.69696872
 20
-44.2107562
 30
0.0
 11
31.30302981
 21
-44.2107562
 31
0.0
  0
LINE
  8
0
  6
PHANTOM
 62
       4
  5
B2
 10
31.30302981
 20
-37.21075648
 30
0.0
 11
31.30302981
 21
-45.71075614
 31
0.0
  0
LINE
  8
0
  6
PHANTOM
 62
       4
  5
B3
 10
-5.69696872
 20
-37.21075648
 30
0.0
 11
-5.69696872
 21
-45.71075614
 31
0.0
  0
LINE
  8
0
  6
PHANTOM
 62
       4
  5
B4
 10
-5.69696872
 20
-72.71075507
 30
0.0
 11
-5.69696872
 21
-81.21075473
 31
0.0
  0
LINE
  8
0
  6
PHANTOM
 62
       4
  5
B5
 10
31.30302981
 20
-72.71075507
 30
0.0
 11
31.30302981
 21
-81.21075473
 31
0.0
  0
LINE
  8
0
  6
PHANTOM
 62
       4
  5
B6
 10
-5.69696872
 20
-37.21075648
 30
0.0
 11
0.30303104
 21
-31.21075672
 31
0.0
  0
LINE
  8
0
  6
PHANTOM
 62
       4
  5
B7
 10
25.30303005
 20
-31.21075672
 30
0.0
 11
31.30302981
 21
-37.21075648
 31
0.0
  0
LINE
  8
0
  6
PHANTOM
 62
       4
  5
B8
 10
31.30302981
 20
-81.21075473
 30
0.0
 11
25.30303005
 21
-87.21075449
 31
0.0
  0
LINE
  8
0
  6
PHANTOM
 62
       4
  5
B9
 10
-5.69696872
 20
-81.21075473
 30
0.0
 11
0.30303104
 21
-87.21075449
 31
0.0
  0
LINE
  8
0
  6
PHANTOM
 62
       4
  5
BA
 10
-5.69696872
 20
-19.71075757
 30
0.0
 11
31.30302981
 21
-19.71075757
 31
0.0
  0
LINE
  8
0
  6
PHANTOM
 62
       4
  5
BB
 10
-5.69696872
 20
-17.71075765
 30
0.0
 11
31.30302981
 21
-17.71075765
 31
0.0
  0
LINE
  8
0
  6
PHANTOM
 62
       4
  5
BC
 10
-5.69696872
 20
-13.71075781
 30
0.0
 11
31.30302981
 21
-13.71075781
 31
0.0
  0
LINE
  8
0
  6
PHANTOM
 62
       4
  5
BD
 10
31.30302981
 20
-10.71075793
 30
0.0
 11
31.30302981
 21
-19.71075757
 31
0.0
  0
LINE
  8
0
  6
PHANTOM
 62
       4
  5
BE
 10
-5.69696872
 20
-10.71075793
 30
0.0
 11
-5.69696872
 21
-19.71075757
 31
0.0
  0
LINE
  8
0
  6
CENTER
 62
       2
  5
BF
 10
-9.84696855
 20
14.28924108
 30
0.0
 11
-0.58030226
 21
14.28924108
 31
0.0
  0
LINE
  8
0
  6
CENTER
 62
       2
  5
C0
 10
-9.84696855
 20
4.28924147
 30
0.0
 11
-0.58030226
 21
4.28924147
 31
0.0
  0
LINE
  8
0
  6
CENTER
 62
       2
  5
C1
 10
-9.84696855
 20
-5.71075813
 30
0.0
 11
-0.79696891
 21
-5.71075813
 31
0.0
  0
LINE
  8
0
  6
PHANTOM
 62
       2
  5
C2
 10
92.33636072
 20
9.28924128
 30
0.0
 11
100.05302708
 21
9.28924128
 31
0.0
  0
LINE
  8
0
  6
PHANTOM
 62
       2
  5
C3
 10
92.7863607
 20
-0.71075833
 30
0.0
 11
100.05302708
 21
-0.71075833
 31
0.0
  0
LINE
  8
0
  6
PHANTOM
 62
       4
  5
C4
 10
-108.68029796
 20
-17.71075765
 30
0.0
 11
-108.68029796
 21
-19.71075757
 31
0.0
  0
CIRCLE
  8
0
  6
CONTINUOUS
 62
       2
  5
C5
 10
-80.68865784
 20
14.28922684
 30
0.0
 40
2.4999999
  0
CIRCLE
  8
0
  6
CONTINUOUS
 62
       7
  5
C6
 10
-71.68861751
 20
14.28922684
 30
0.0
 40
1.74999866
  0
CIRCLE
  8
0
  6
CONTINUOUS
 62
       7
  5
C7
 10
-89.68864731
 20
-5.71077237
 30
0.0
 40
1.74999866
  0
CIRCLE
  8
0
  6
CONTINUOUS
 62
       7
  5
C8
 10
87.31134057
 20
14.28922684
 30
0.0
 40
1.74999866
  0
CIRCLE
  8
0
  6
CONTINUOUS
 62
       7
  5
C9
 10
105.31137038
 20
-5.71077237
 30
0.0
 40
1.74999866
  0
CIRCLE
  8
0
  6
CONTINUOUS
 62
       7
  5
CA
 10
105.31137038
 20
-5.71077237
 30
0.0
 40
3.24999955
  0
CIRCLE
  8
0
  6
CONTINUOUS
 62
       7
  5
CB
 10
87.31134057
 20
14.28922684
 30
0.0
 40
3.24999955
  0
CIRCLE
  8
0
  6
CONTINUOUS
 62
       2
  5
CC
 10
25.31132269
 20
-48.71076263
 30
0.0
 40
1.9999996
  0
CIRCLE
  8
0
  6
CONTINUOUS
 62
       2
  5
CD
 10
0.31132369
 20
-69.71075926
 30
0.0
 40
1.9999996
  0
CIRCLE
  8
0
  6
CONTINUOUS
 62
       7
  5
CE
 10
25.31132269
 20
-48.71076263
 30
0.0
 40
1.5
  0
CIRCLE
  8
0
  6
CONTINUOUS
 62
       7
  5
CF
 10
0.31132369
 20
-69.71075926
 30
0.0
 40
1.5
  0
CIRCLE
  8
0
  6
CONTINUOUS
 62
       7
  5
D0
 10
-78.18865794
 20
53.68922425
 30
0.0
 40
1.3
  0
CIRCLE
  8
0
  6
CONTINUOUS
 62
       7
  5
D1
 10
-83.18865774
 20
53.68922425
 30
0.0
 40
1.3
  0
CIRCLE
  8
0
  6
CONTINUOUS
 62
       7
  5
D2
 10
-78.18865794
 20
53.68922425
 30
0.0
 40
0.5
  0
CIRCLE
  8
0
  6
CONTINUOUS
 62
       7
  5
D3
 10
-83.18865774
 20
53.68922425
 30
0.0
 40
0.5
  0
ARC
  8
0
  6
CONTINUOUS
 62
       7
  5
D4
 10
-8.19277703
 20
56.18504782
 30
0.0
 40
0.50420899
 50
90.47631693
 51
179.52368307
  0
ARC
  8
0
  6
CONTINUOUS
 62
       7
  5
D5
 10
-8.19279216
 20
51.19341607
 30
0.0
 40
0.50419374
 50
180.47461175
 51
269.52538825
  0
ARC
  8
0
  6
CONTINUOUS
 62
       7
  5
D6
 10
-78.18448966
 20
53.68504902
 30
0.0
 40
2.5041939
 50
0.09587821
 51
89.90412179
  0
ARC
  8
0
  6
CONTINUOUS
 62
       7
  5
D7
 10
-78.18447443
 20
53.69341477
 30
0.0
 40
2.50417864
 50
270.09553026
 51
359.90446974
  0
ARC
  8
0
  6
CONTINUOUS
 62
       7
  5
D8
 10
-83.18446722
 20
53.69340776
 30
0.0
 40
2.49583513
 50
89.90431137
 51
180.09568863
  0
ARC
  8
0
  6
CONTINUOUS
 62
       7
  5
D9
 10
-83.1844825
 20
53.68505598
 30
0.0
 40
2.49581988
 50
179.90395991
 51
270.09604009
  0
CIRCLE
  8
0
  6
CONTINUOUS
 62
       2
  5
DA
 10
-80.68865784
 20
-5.71077237
 30
0.0
 40
2.4999999
  0
CIRCLE
  8
0
  6
CONTINUOUS
 62
       2
  5
DB
 10
-80.68865784
 20
4.28922723
 30
0.0
 40
2.4999999
  0
CIRCLE
  8
0
  6
CONTINUOUS
 62
       2
  5
DC
 10
96.31133004
 20
9.28922703
 30
0.0
 40
2.4999999
  0
CIRCLE
  8
0
  6
CONTINUOUS
 62
       2
  5
DD
 10
96.31133004
 20
-0.71077257
 30
0.0
 40
2.4999999
  0
ARC
  8
0
  6
PHANTOM
 62
       4
  5
DE
 10
-98.68447439
 20
-16.70658166
 30
0.0
 40
1.00418468
 50
270.23827265
 51
359.76172735
  0
ARC
  8
0
  6
PHANTOM
 62
       4
  5
DF
 10
-98.68446859
 20
-16.70658746
 30
0.0
 40
3.00417301
 50
270.07953499
 51
359.92046501
  0
ARC
  8
0
  6
PHANTOM
 62
       4
  5
E0
 10
-62.6844629
 20
-16.7149208
 30
0.0
 40
2.99583966
 50
179.92037999
 51
270.07962001
  0
ARC
  8
0
  6
PHANTOM
 62
       4
  5
E1
 10
-62.68445713
 20
-16.71491503
 30
0.0
 40
0.9958513
 50
179.76080911
 51
270.23919089
  0
ARC
  8
0
  6
PHANTOM
 62
       4
  5
E2
 10
-94.68446078
 20
-13.70659555
 30
0.0
 40
0.99584639
 50
89.76052447
 51
180.23947553
  0
ARC
  8
0
  6
PHANTOM
 62
       4
  5
E3
 10
-66.68447061
 20
-13.71492879
 30
0.0
 40
1.0041796
 50
0.23798544
 51
89.76201456
  0
ARC
  8
0
  6
PHANTOM
 62
       4
  5
E4
 10
-94.68446739
 20
-13.70658893
 30
0.0
 40
2.9958339
 50
89.92026957
 51
180.07973043
  0
ARC
  8
0
  6
PHANTOM
 62
       4
  5
E5
 10
-66.68446406
 20
-13.71492224
 30
0.0
 40
3.0041672
 50
0.07942441
 51
89.92057559
  0
ARC
  8
0
  6
PHANTOM
 62
       4
  5
E6
 10
78.30718851
 20
-16.71491826
 30
0.0
 40
2.9958422
 50
269.92042862
 51
0.07957138
  0
ARC
  8
0
  6
PHANTOM
 62
       4
  5
E7
 10
78.30718275
 20
-16.7149125
 30
0.0
 40
0.99585382
 50
269.76095543
 51
0.23904457
  0
ARC
  8
0
  6
PHANTOM
 62
       4
  5
E8
 10
82.30718967
 20
-13.71491969
 30
0.0
 40
3.00416464
 50
90.07937591
 51
179.92062409
  0
ARC
  8
0
  6
PHANTOM
 62
       4
  5
E9
 10
110.3071864
 20
-13.70659808
 30
0.0
 40
0.99584892
 50
359.76067078
 51
90.23932922
  0
ARC
  8
0
  6
PHANTOM
 62
       4
  5
EA
 10
110.30719301
 20
-13.70659147
 30
0.0
 40
2.99583644
 50
359.92031821
 51
90.07968179
  0
ARC
  8
0
  6
PHANTOM
 62
       4
  5
EB
 10
114.3071942
 20
-16.70659
 30
0.0
 40
3.00417046
 50
180.07948649
 51
269.92051351
  0
ARC
  8
0
  6
PHANTOM
 62
       4
  5
EC
 10
114.30719999
 20
-16.70658421
 30
0.0
 40
1.00418211
 50
180.23812755
 51
269.76187245
  0
ARC
  8
0
  6
PHANTOM
 62
       4
  5
ED
 10
82.30719621
 20
-13.71492623
 30
0.0
 40
1.00417704
 50
90.23784034
 51
179.76215966
  0
CIRCLE
  8
0
  6
PHANTOM
 62
       4
  5
EE
 10
12.81132319
 20
-36.71076343
 30
0.0
 40
2.74999925
  0
CIRCLE
  8
0
  6
PHANTOM
 62
       4
  5
EF
 10
12.81132319
 20
-81.71075369
 30
0.0
 40
2.74999925
  0
CIRCLE
  8
0
  6
CONTINUOUS
 62
       7
  5
F0
 10
-80.68865784
 20
14.28922684
 30
0.0
 40
2.06701368
  0
CIRCLE
  8
0
  6
CONTINUOUS
 62
       7
  5
F1
 10
-80.68865784
 20
4.28922723
 30
0.0
 40
2.06701368
  0
CIRCLE
  8
0
  6
CONTINUOUS
 62
       7
  5
F2
 10
-80.68865784
 20
-5.71077237
 30
0.0
 40
2.06701368
  0
CIRCLE
  8
0
  6
CONTINUOUS
 62
       7
  5
F3
 10
96.31133004
 20
9.28922703
 30
0.0
 40
2.06701368
  0
CIRCLE
  8
0
  6
CONTINUOUS
 62
       7
  5
F4
 10
96.31133004
 20
-0.71077257
 30
0.0
 40
2.06701368
  0
LINE
  8
0
  6
CONTINUOUS
 62
       2
  5
F5
 10
-18.55769719
 20
49.93046903
 30
0.0
 11
-15.82153604
 21
57.44801
 31
0.0
  0
LINE
  8
0
  6
CONTINUOUS
 62
       2
  5
F6
 10
-16.55769719
 20
49.93046903
 30
0.0
 11
-13.82153604
 21
57.44801
 31
0.0
  0
LINE
  8
0
  6
CONTINUOUS
 62
       2
  5
F7
 10
-20.01043894
 20
-66.22471668
 30
0.0
 11
-14.90469282
 21
-52.19679453
 31
0.0
  0
LINE
  8
0
  6
CONTINUOUS
 62
       2
  5
F8
 10
-18.01043894
 20
-66.22471668
 30
0.0
 11
-12.90469282
 21
-52.19679453
 31
0.0
  0
LINE
  8
0
  6
CONTINUOUS
 62
       7
  5
F9
 10
-138.3999939
 20
94.5
 30
0.0
 11
138.3500061
 21
94.5
 31
0.0
  0
LINE
  8
0
  6
CONTINUOUS
 62
       7
  5
FA
 10
138.3500061
 20
94.5
 30
0.0
 11
138.3500061
 21
-94.80000305
 31
0.0
  0
LINE
  8
0
  6
CONTINUOUS
 62
       7
  5
FB
 10
-138.3999939
 20
-94.80000305
 30
0.0
 11
138.3500061
 21
-94.80000305
 31
0.0
  0
LINE
  8
0
  6
CONTINUOUS
 62
       7
  5
FC
 10
-138.3999939
 20
94.5
 30
0.0
 11
-138.3999939
 21
-94.80000305
 31
0.0
  0
TEXT
  8
0
  6
CONTINUOUS
 62
       7
  5
FD
 10
-129.41052015
 20
82.9000001
 30
0.0
 40
3.19999981
  1
MODEL:050-4LE1
 41
1.10526316
  7
MX_NOTE_STANDARD
 11
-129.41052015
 21
84.5
 31
0.0
 73
       2
  0
ENDSEC
  0
EOF
