  0
SECTION
  2
HEADER
  0
ENDSEC
  0
SECTION
  2
TABLES
  0
TABLE
  2
LTYPE
 70
     4
  0
LTYPE
  2
CONTINUOUS
 70
    64
  3
Solid line
 72
    65
 73
     0
 40
0.000000
  0
LTYPE
  2
DASHED
 70
    64
  3
__ __ __ __ __ __ __ __ __ __ __ __ __ __ __
 72
    65
 73
     2
 40
3.500000
 49
2.000000
 49
-1.500000
  0
LTYPE
  2
CENTER
 70
    64
  3
____ _ ____ _ ____ _ ____ _ ____ _ ____ _ ____
 72
    65
 73
     4
 40
17.500000
 49
13.000000
 49
-1.500000
 49
1.500000
 49
-1.500000
  0
LTYPE
  2
PHANTOM
 70
    64
  3
_____ _ _ _____ _ _ _____ _ _ _____ _ _ ____  
 72
    65
 73
     6
 40
15.500000
 49
8.000000
 49
-1.500000
 49
1.500000
 49
-1.500000
 49
1.500000
 49
-1.500000
  0
LTYPE
  2
DASHED1
 70
    64
  3
__ __ __ __ __ __ __ __ __ __ __ __ __ __ __
 72
    65
 73
     2
 40
1.500000
 49
1.000000
 49
-0.500000
  0
LTYPE
  2
DASHED2
 70
    64
  3
__ __ __ __ __ __ __ __ __ __ __ __ __ __ __
 72
    65
 73
     2
 40
3.500000
 49
2.500000
 49
-1.000000
  0
LTYPE
  2
DASHED3
 70
    64
  3
__ __ __ __ __ __ __ __ __ __ __ __ __ __ __
 72
    65
 73
     2
 40
6.000000
 49
4.000000
 49
-2.000000
  0
LTYPE
  2
DASHED4
 70
    64
  3
__ __ __ __ __ __ __ __ __ __ __ __ __ __ __
 72
    65
 73
     2
 40
12.000000
 49
10.000000
 49
-2.000000
  0
LTYPE
  2
DASHED5
 70
    64
  3
__ __ __ __ __ __ __ __ __ __ __ __ __ __ __
 72
    65
 73
     2
 40
17.000000
 49
15.000000
 49
-2.000000
  0
LTYPE
  2
DASHED6
 70
    64
  3
__ __ __ __ __ __ __ __ __ __ __ __ __ __ __
 72
    65
 73
     2
 40
29.000000
 49
27.000000
 49
-2.000000
  0
LTYPE
  2
PHANTOM1
 70
    64
  3
_____ _ _ _____ _ _ _____ _ _ _____ _ _ ____  
 72
    65
 73
     6
 40
31.000000
 49
25.000000
 49
-1.500000
 49
1.000000
 49
-1.000000
 49
1.000000
 49
-1.500000
  0
LTYPE
  2
PHANTOM2
 70
    64
  3
_____ _ _ _____ _ _ _____ _ _ _____ _ _ ____  
 72
    65
 73
     6
 40
36.000000
 49
27.000000
 49
-1.500000
 49
2.500000
 49
-1.000000
 49
2.500000
 49
-1.500000
  0
LTYPE
  2
PHANTOM3
 70
    64
  3
_____ _ _ _____ _ _ _____ _ _ _____ _ _ ____  
 72
    65
 73
     6
 40
78.000000
 49
64.000000
 49
-2.000000
 49
4.000000
 49
-2.000000
 49
4.000000
 49
-2.000000
  0
LTYPE
  2
CENTER1
 70
    64
  3
____ _ ____ _ ____ _ ____ _ ____ _ ____ _ ____
 72
    65
 73
     4
 40
19.000000
 49
14.000000
 49
-1.000000
 49
3.000000
 49
-1.000000
  0
LTYPE
  2
CENTER2
 70
    64
  3
____ _ ____ _ ____ _ ____ _ ____ _ ____ _ ____
 72
    65
 73
     4
 40
28.500000
 49
25.000000
 49
-1.000000
 49
1.500000
 49
-1.000000
  0
LTYPE
  2
CENTER3
 70
    64
  3
____ _ ____ _ ____ _ ____ _ ____ _ ____ _ ____
 72
    65
 73
     4
 40
31.500000
 49
27.000000
 49
-1.000000
 49
2.500000
 49
-1.000000
  0
LTYPE
  2
CENTER4
 70
    64
  3
____ _ ____ _ ____ _ ____ _ ____ _ ____ _ ____
 72
    65
 73
     4
 40
50.000000
 49
45.000000
 49
-1.000000
 49
3.000000
 49
-1.000000
  0
LTYPE
  2
CENTER5
 70
    64
  3
____ _ ____ _ ____ _ ____ _ ____ _ ____ _ ____
 72
    65
 73
     4
 40
100.000000
 49
92.000000
 49
-2.000000
 49
4.000000
 49
-2.000000
  0
LTYPE
  2
SBK1
 70
    64
  3
______ _ _ _ ______ _ _ _ ______ _ _ _ _____  
 72
    65
 73
     8
 40
60.500000
 49
45.000000
 49
-2.000000
 49
2.500000
 49
-2.000000
 49
2.500000
 49
-2.000000
 49
2.500000
 49
-2.000000
  0
LTYPE
  2
SBK2
 70
    64
  3
______ _ _ _ ______ _ _ _ ______ _ _ _ _____  
 72
    65
 73
     8
 40
84.000000
 49
64.000000
 49
-2.000000
 49
4.000000
 49
-2.000000
 49
4.000000
 49
-2.000000
 49
4.000000
 49
-2.000000
  0
LTYPE
  2
STCH
 70
    64
  3
__ __ __ __ __ __ __ __ __ __ __ __ __ __ __
 72
    65
 73
     2
 40
3.000000
 49
1.000000
 49
-2.000000
  0
LTYPE
  2
MTCH
 70
    64
  3
_____ _ _ _____ _ _ _____ _ _ _____ _ _ ____  
 72
    65
 73
     6
 40
80.000000
 49
66.000000
 49
-2.000000
 49
4.000000
 49
-2.000000
 49
4.000000
 49
-2.000000
  0
ENDTAB
  0
TABLE
  2
LAYER
 70
     1
  0
LAYER
  2
0
 70
     0
 62
     7
  6
CONTINUOUS
  0
ENDTAB
  0
TABLE
  2
STYLE
 70
     1
  0
STYLE
  2
STANDARD
 70
     0
 40
0.000000
 41
1.000000
 50
0.000000
 71
     0
 42
0.200000
  3
txt
  4
BIGFONT
  0
ENDTAB
  0
TABLE
  2
VIEW
 70
     0
  0
ENDTAB
  0
ENDSEC
  0
SECTION
  2
BLOCKS
  0
ENDSEC
  0
SECTION
  2
ENTITIES
  0
LINE
  8
0
 62
     4
 10
148.550003
 20
86.500000
 11
151.050003
 21
86.500000
  0
LINE
  8
0
 62
     4
 10
148.550003
 20
83.500000
 11
151.050003
 21
83.500000
  0
LINE
  8
0
 62
     4
 10
145.530014
 20
71.212402
 11
154.070023
 21
71.212402
  0
LINE
  8
0
 62
     4
 10
145.029999
 20
88.000000
 11
145.029999
 21
71.712402
  0
LINE
  8
0
 62
     4
 10
154.570007
 20
88.000000
 11
154.570007
 21
71.712402
  0
LINE
  8
0
 62
     4
 10
145.300018
 20
88.500000
 11
154.300018
 21
88.500000
  0
LINE
  8
0
 62
     4
 10
147.396042
 20
90.900009
 11
145.596039
 21
90.900009
  0
LINE
  8
0
 62
     4
 10
151.103973
 20
90.500000
 11
151.103973
 21
90.300003
  0
LINE
  8
0
 62
     4
 10
151.103973
 20
90.300003
 11
154.703964
 21
90.300003
  0
LINE
  8
0
 62
     4
 10
152.203964
 20
90.900009
 11
154.003967
 21
90.900009
  0
LINE
  8
0
 62
     4
 10
144.800003
 20
70.000000
 11
154.800003
 21
70.000000
  0
LINE
  8
0
 62
     4
 10
145.300003
 20
90.500000
 11
151.638275
 21
90.500000
  0
LINE
  8
0
 62
     4
 10
144.800003
 20
89.500000
 11
154.800003
 21
89.500000
  0
LINE
  8
0
 62
     4
 10
144.800003
 20
90.000000
 11
144.800003
 21
70.000000
  0
LINE
  8
0
 62
     4
 10
154.800003
 20
90.000000
 11
154.800003
 21
70.000000
  0
LINE
  8
0
  6
CENTER
 62
     1
 10
149.800003
 20
91.443237
 11
149.800003
 21
68.758339
  0
LINE
  8
0
  6
DASHED
 10
72.012497
 20
-71.249649
 11
82.012497
 21
-71.249649
  0
LINE
  8
0
 62
     4
 10
74.262497
 20
-47.249649
 11
79.762497
 21
-47.249649
  0
LINE
  8
0
 62
     4
 10
74.262497
 20
-48.149658
 11
79.762497
 21
-48.149658
  0
LINE
  8
0
 62
     4
 10
79.762497
 20
-47.249649
 11
79.762497
 21
-49.249649
  0
LINE
  8
0
 62
     4
 10
74.262497
 20
-47.249649
 11
74.262497
 21
-49.249649
  0
LINE
  8
0
 62
     4
 10
82.012421
 20
-54.249664
 11
81.614906
 21
-49.706070
  0
LINE
  8
0
 62
     4
 10
72.012497
 20
-54.249657
 11
72.410011
 21
-49.706078
  0
LINE
  8
0
 62
     4
 10
72.908127
 20
-49.249649
 11
81.116898
 21
-49.249649
  0
LINE
  8
0
 62
     4
 10
72.012512
 20
-54.249649
 11
82.012512
 21
-54.249649
  0
LINE
  8
0
 62
     4
 10
82.012497
 20
-54.249649
 11
82.012497
 21
-57.249649
  0
LINE
  8
0
 62
     4
 10
72.012497
 20
-54.249649
 11
72.012497
 21
-57.249649
  0
LINE
  8
0
  6
DASHED
 10
75.012497
 20
-56.149658
 11
75.012497
 21
-57.249649
  0
LINE
  8
0
  6
DASHED
 10
79.012497
 20
-56.149658
 11
75.012497
 21
-56.149658
  0
LINE
  8
0
 62
     4
 10
77.012497
 20
-56.328278
 11
77.012497
 21
-57.249649
  0
LINE
  8
0
  6
DASHED
 10
79.012497
 20
-56.149658
 11
79.012497
 21
-57.249649
  0
LINE
  8
0
  6
CENTER
 62
     2
 10
73.712494
 20
-56.449646
 11
73.712494
 21
-61.449646
  0
LINE
  8
0
  6
CENTER
 62
     2
 10
71.212494
 20
-58.949646
 11
76.212494
 21
-58.949646
  0
LINE
  8
0
  6
DASHED
 10
78.512497
 20
-69.549652
 11
78.512497
 21
-71.249649
  0
LINE
  8
0
  6
CENTER
 62
     2
 10
77.812500
 20
-69.549652
 11
82.812500
 21
-69.549652
  0
LINE
  8
0
  6
CENTER
 62
     2
 10
80.312500
 20
-67.049652
 11
80.312500
 21
-72.049652
  0
LINE
  8
0
  6
DASHED
 10
80.312500
 20
-67.749649
 11
82.012497
 21
-67.749649
  0
LINE
  8
0
  6
DASHED
 10
73.712494
 20
-60.749649
 11
72.012497
 21
-60.749649
  0
LINE
  8
0
  6
DASHED
 10
75.512497
 20
-58.949646
 11
75.512497
 21
-57.249649
  0
LINE
  8
0
  6
DASHED
 10
82.012497
 20
-57.249649
 11
72.012497
 21
-57.249649
  0
LINE
  8
0
  6
CENTER
 62
     1
 10
77.012497
 20
-43.676483
 11
77.012497
 21
-73.503662
  0
LINE
  8
0
  6
DASHED
 10
81.019608
 20
-68.842545
 11
79.605392
 21
-70.256760
  0
LINE
  8
0
  6
DASHED
 10
79.605392
 20
-68.842545
 11
81.019608
 21
-70.256760
  0
LINE
  8
0
  6
DASHED
 10
74.419601
 20
-58.242538
 11
73.005386
 21
-59.656754
  0
LINE
  8
0
  6
DASHED
 10
73.005386
 20
-58.242538
 11
74.419601
 21
-59.656750
  0
LINE
  8
0
  6
DASHED
 10
82.012497
 20
-57.249649
 11
82.012497
 21
-71.249649
  0
LINE
  8
0
  6
DASHED
 10
72.012497
 20
-57.249649
 11
72.012497
 21
-71.249649
  0
LINE
  8
0
  6
CENTER
 62
     1
 10
122.762512
 20
22.333328
 11
122.762512
 21
-1.131028
  0
LINE
  8
0
 62
     4
 10
129.762512
 20
0.000000
 11
112.873367
 21
0.000000
  0
LINE
  8
0
 62
     4
 10
129.762512
 20
0.000000
 11
112.762512
 21
0.000000
  0
LINE
  8
0
 62
     4
 10
115.762512
 20
19.999985
 11
115.762512
 21
0.000000
  0
LINE
  8
0
 62
     4
 10
129.762512
 20
19.999985
 11
129.762512
 21
0.000000
  0
LINE
  8
0
 62
     4
 10
118.928200
 20
20.499985
 11
129.262512
 21
20.499985
  0
LINE
  8
0
 62
     4
 10
129.762512
 20
19.499985
 11
108.262512
 21
19.499985
  0
LINE
  8
0
 62
     4
 10
119.462509
 20
20.299988
 11
115.862503
 21
20.299988
  0
LINE
  8
0
 62
     4
 10
119.462509
 20
20.499985
 11
119.462509
 21
20.299988
  0
LINE
  8
0
 62
     4
 10
127.162521
 20
20.899994
 11
128.962509
 21
20.899994
  0
LINE
  8
0
 62
     4
 10
118.362518
 20
20.899994
 11
116.562515
 21
20.899994
  0
LINE
  8
0
 62
     4
 10
107.762512
 20
18.999985
 11
107.762512
 21
2.650070
  0
LINE
  8
0
 62
     4
 10
112.762527
 20
-0.000020
 11
108.051224
 21
2.196896
  0
LINE
  8
0
 62
     4
 10
112.762512
 20
27.499985
 11
108.662521
 21
27.499985
  0
LINE
  8
0
 62
     4
 10
111.162521
 20
27.499985
 11
111.162521
 21
19.499985
  0
LINE
  8
0
 62
     4
 10
109.362518
 20
27.499985
 11
109.362518
 21
19.499985
  0
LINE
  8
0
 62
     4
 10
105.762512
 20
27.499985
 11
105.762512
 21
25.999985
  0
LINE
  8
0
 62
     4
 10
106.662521
 20
20.895836
 11
105.762527
 21
25.999989
  0
LINE
  8
0
 62
     4
 10
106.762512
 20
27.499985
 11
106.762512
 21
26.087479
  0
LINE
  8
0
 62
     4
 10
106.762512
 20
27.499985
 11
105.762512
 21
27.499985
  0
LINE
  8
0
 62
     4
 10
107.865601
 20
19.831800
 11
106.747360
 21
26.173649
  0
LINE
  8
0
 62
     4
 10
108.662521
 20
27.499985
 11
108.662521
 21
19.901520
  0
LINE
  8
0
 62
     4
 10
108.362518
 20
27.199997
 11
108.362518
 21
21.299988
  0
LINE
  8
0
 62
     4
 10
108.662529
 20
27.499968
 11
108.362526
 21
27.199968
  0
LINE
  8
0
 62
     4
 10
108.662491
 20
20.999985
 11
108.362495
 21
21.299978
  0
LINE
  8
0
 62
     4
 10
106.662521
 20
20.895844
 11
106.662521
 21
11.499985
  0
LINE
  8
0
 62
     4
 10
107.762512
 20
11.499985
 11
106.662521
 21
11.499985
  0
LINE
  8
0
 62
     4
 10
109.612518
 20
31.001785
 11
109.612518
 21
27.499985
  0
LINE
  8
0
 62
     4
 10
110.912521
 20
34.999985
 11
110.912521
 21
32.385391
  0
LINE
  8
0
 62
     4
 10
109.612518
 20
34.999985
 11
109.612518
 21
32.037064
  0
LINE
  8
0
 62
     4
 10
109.612518
 20
34.999985
 11
110.912521
 21
34.999985
  0
LINE
  8
0
 62
     4
 10
110.012512
 20
38.499985
 11
110.512512
 21
38.499985
  0
LINE
  8
0
 62
     4
 10
110.012512
 20
38.499985
 11
110.012512
 21
34.999985
  0
LINE
  8
0
 62
     4
 10
110.512512
 20
38.499985
 11
110.512512
 21
34.999985
  0
LINE
  8
0
 62
     4
 10
110.912521
 20
31.350128
 11
110.912521
 21
27.499985
  0
LINE
  8
0
 62
     4
 10
112.762512
 20
27.499985
 11
112.762512
 21
26.499985
  0
LINE
  8
0
 62
     4
 10
112.762512
 20
21.499985
 11
112.762512
 21
19.499985
  0
LINE
  8
0
 62
     4
 10
112.262512
 20
26.499985
 11
112.262512
 21
21.499985
  0
LINE
  8
0
 62
     4
 10
112.762512
 20
0.000000
 11
112.762512
 21
19.499985
  0
LINE
  8
0
  6
PHANTOM
 62
     1
 10
108.612511
 20
30.733820
 11
111.912529
 21
31.618053
  0
LINE
  8
0
  6
PHANTOM
 62
     1
 10
108.612503
 20
31.769093
 11
111.912529
 21
32.653328
  0
LINE
  8
0
 62
     4
 10
112.762512
 20
26.499985
 11
112.262512
 21
26.499985
  0
LINE
  8
0
 62
     4
 10
112.762512
 20
21.499985
 11
112.262512
 21
21.499985
  0
LINE
  8
0
  6
CENTER
 62
     1
 10
110.262512
 20
42.452179
 11
110.262512
 21
24.498169
  0
LINE
  8
0
 62
     4
 10
41.262497
 20
21.499985
 11
41.762497
 21
21.499985
  0
LINE
  8
0
 62
     4
 10
41.262497
 20
26.499985
 11
41.762497
 21
26.499985
  0
LINE
  8
0
  6
PHANTOM
 62
     1
 10
45.412498
 20
31.769093
 11
42.112484
 21
32.653328
  0
LINE
  8
0
  6
PHANTOM
 62
     1
 10
45.412491
 20
30.733812
 11
42.112480
 21
31.618048
  0
LINE
  8
0
  6
CENTER
 62
     1
 10
43.762497
 20
40.977127
 11
43.762497
 21
24.498169
  0
LINE
  8
0
 62
     4
 10
41.262497
 20
0.000000
 11
41.262497
 21
19.499985
  0
LINE
  8
0
 62
     4
 10
41.762497
 20
26.499985
 11
41.762497
 21
21.499985
  0
LINE
  8
0
 62
     4
 10
41.262497
 20
21.499985
 11
41.262497
 21
19.499985
  0
LINE
  8
0
 62
     4
 10
41.262497
 20
27.499985
 11
41.262497
 21
26.499985
  0
LINE
  8
0
 62
     4
 10
43.112488
 20
31.350128
 11
43.112488
 21
27.499985
  0
LINE
  8
0
 62
     4
 10
43.512497
 20
38.499985
 11
43.512497
 21
34.999985
  0
LINE
  8
0
 62
     4
 10
44.012497
 20
38.499985
 11
44.012497
 21
34.999985
  0
LINE
  8
0
 62
     4
 10
44.012497
 20
38.499985
 11
43.512497
 21
38.499985
  0
LINE
  8
0
 62
     4
 10
44.412491
 20
34.999985
 11
43.112488
 21
34.999985
  0
LINE
  8
0
 62
     4
 10
44.412491
 20
34.999985
 11
44.412491
 21
32.037064
  0
LINE
  8
0
 62
     4
 10
43.112488
 20
34.999985
 11
43.112488
 21
32.385391
  0
LINE
  8
0
 62
     4
 10
44.412491
 20
31.001785
 11
44.412491
 21
27.499985
  0
LINE
  8
0
 62
     4
 10
46.262497
 20
11.499985
 11
47.362488
 21
11.499985
  0
LINE
  8
0
 62
     4
 10
47.362488
 20
20.895844
 11
47.362488
 21
11.499985
  0
LINE
  8
0
 62
     4
 10
45.362499
 20
20.999975
 11
45.662495
 21
21.299969
  0
LINE
  8
0
 62
     4
 10
45.362469
 20
27.499960
 11
45.662464
 21
27.199966
  0
LINE
  8
0
 62
     4
 10
45.662491
 20
27.199997
 11
45.662491
 21
21.299988
  0
LINE
  8
0
 62
     4
 10
45.362488
 20
27.499985
 11
45.362488
 21
19.901520
  0
LINE
  8
0
 62
     4
 10
46.159416
 20
19.831797
 11
47.277657
 21
26.173645
  0
LINE
  8
0
 62
     4
 10
47.262497
 20
27.499985
 11
48.262497
 21
27.499985
  0
LINE
  8
0
 62
     4
 10
47.262497
 20
27.499985
 11
47.262497
 21
26.087479
  0
LINE
  8
0
 62
     4
 10
47.362473
 20
20.895838
 11
48.262470
 21
25.999989
  0
LINE
  8
0
 62
     4
 10
48.262497
 20
27.499985
 11
48.262497
 21
25.999985
  0
LINE
  8
0
 62
     4
 10
44.662491
 20
27.499985
 11
44.662491
 21
19.499985
  0
LINE
  8
0
 62
     4
 10
42.862488
 20
27.499985
 11
42.862488
 21
19.499985
  0
LINE
  8
0
 62
     4
 10
41.262497
 20
27.499985
 11
45.362488
 21
27.499985
  0
LINE
  8
0
 62
     4
 10
41.262482
 20
-0.000023
 11
45.973774
 21
2.196889
  0
LINE
  8
0
 62
     4
 10
46.262497
 20
18.999985
 11
46.262497
 21
2.650070
  0
LINE
  8
0
 62
     4
 10
35.662491
 20
20.899994
 11
37.462494
 21
20.899994
  0
LINE
  8
0
 62
     4
 10
26.862488
 20
20.899994
 11
25.062500
 21
20.899994
  0
LINE
  8
0
 62
     4
 10
27.962494
 20
20.499985
 11
27.962494
 21
20.299988
  0
LINE
  8
0
 62
     4
 10
27.962494
 20
20.299988
 11
24.362495
 21
20.299988
  0
LINE
  8
0
 62
     4
 10
24.262497
 20
19.499985
 11
45.762497
 21
19.499985
  0
LINE
  8
0
 62
     4
 10
37.762497
 20
20.499985
 11
27.428177
 21
20.499985
  0
LINE
  8
0
 62
     4
 10
24.262497
 20
19.999985
 11
24.262497
 21
0.000000
  0
LINE
  8
0
 62
     4
 10
38.262497
 20
19.999985
 11
38.262497
 21
0.000000
  0
LINE
  8
0
 62
     4
 10
24.262497
 20
0.000000
 11
41.262497
 21
0.000000
  0
LINE
  8
0
 62
     4
 10
24.262497
 20
0.000000
 11
41.151642
 21
0.000000
  0
LINE
  8
0
  6
CENTER
 62
     1
 10
31.262497
 20
22.333328
 11
31.262497
 21
-0.980694
  0
LINE
  8
0
 62
     4
 10
72.742477
 20
1.212402
 11
81.282486
 21
1.212402
  0
LINE
  8
0
 62
     4
 10
72.242477
 20
19.000000
 11
72.242477
 21
1.712402
  0
LINE
  8
0
 62
     4
 10
81.782486
 20
19.000000
 11
81.782486
 21
1.712402
  0
LINE
  8
0
 62
     4
 10
77.612503
 20
35.000000
 11
78.912506
 21
35.000000
  0
LINE
  8
0
 62
     4
 10
78.512497
 20
38.500000
 11
78.512497
 21
35.000000
  0
LINE
  8
0
 62
     4
 10
78.012497
 20
38.500000
 11
78.012497
 21
35.000000
  0
LINE
  8
0
 62
     4
 10
78.012497
 20
38.500000
 11
78.512497
 21
38.500000
  0
LINE
  8
0
 62
     4
 10
75.512497
 20
38.500000
 11
76.012497
 21
38.500000
  0
LINE
  8
0
 62
     4
 10
76.012497
 20
38.500000
 11
76.012497
 21
35.000000
  0
LINE
  8
0
 62
     4
 10
75.512497
 20
38.500000
 11
75.512497
 21
35.000000
  0
LINE
  8
0
 62
     4
 10
75.112503
 20
35.000000
 11
76.412506
 21
35.000000
  0
LINE
  8
0
 62
     4
 10
75.112503
 20
35.000000
 11
75.112503
 21
32.749023
  0
LINE
  8
0
 62
     4
 10
76.412506
 20
35.000000
 11
76.412506
 21
32.415100
  0
LINE
  8
0
 62
     4
 10
77.612503
 20
35.000000
 11
77.612503
 21
32.079147
  0
LINE
  8
0
 62
     4
 10
78.912506
 20
35.000000
 11
78.912506
 21
31.730820
  0
LINE
  8
0
  6
PHANTOM
 62
     1
 10
79.912483
 20
31.462875
 11
74.112495
 21
33.016979
  0
LINE
  8
0
  6
PHANTOM
 62
     1
 10
79.912476
 20
30.427595
 11
74.112488
 21
31.981693
  0
LINE
  8
0
 62
     4
 10
78.912506
 20
30.695541
 11
78.912506
 21
27.500000
  0
LINE
  8
0
 62
     4
 10
77.612503
 20
31.043884
 11
77.612503
 21
27.500000
  0
LINE
  8
0
 62
     4
 10
75.112503
 20
31.713745
 11
75.112503
 21
27.500000
  0
LINE
  8
0
 62
     4
 10
76.412506
 20
31.365417
 11
76.412506
 21
27.500000
  0
LINE
  8
0
 62
     4
 10
73.262497
 20
27.500000
 11
80.762497
 21
27.500000
  0
LINE
  8
0
 62
     4
 10
80.762497
 20
27.500000
 11
80.762497
 21
19.500000
  0
LINE
  8
0
 62
     4
 10
79.762497
 20
27.500000
 11
79.762497
 21
11.500000
  0
LINE
  8
0
 62
     4
 10
74.262497
 20
26.000000
 11
79.762497
 21
26.000000
  0
LINE
  8
0
 62
     4
 10
73.262497
 20
27.500000
 11
73.262497
 21
19.500000
  0
LINE
  8
0
 62
     4
 10
74.262497
 20
27.500000
 11
74.262497
 21
11.500000
  0
LINE
  8
0
 62
     4
 10
79.762497
 20
19.500000
 11
81.512497
 21
19.500000
  0
LINE
  8
0
 62
     4
 10
74.262497
 20
11.500000
 11
79.762497
 21
11.500000
  0
LINE
  8
0
 62
     4
 10
81.512497
 20
19.500000
 11
82.012497
 21
19.500000
  0
LINE
  8
0
 62
     4
 10
73.262497
 20
20.900009
 11
72.808533
 21
20.900009
  0
LINE
  8
0
 62
     4
 10
80.762497
 20
20.300003
 11
81.916458
 21
20.300003
  0
LINE
  8
0
 62
     4
 10
80.762497
 20
20.900009
 11
81.216461
 21
20.900009
  0
LINE
  8
0
 62
     4
 10
72.512497
 20
19.500000
 11
74.262497
 21
19.500000
  0
LINE
  8
0
 62
     4
 10
72.512497
 20
20.500000
 11
73.262497
 21
20.500000
  0
LINE
  8
0
 62
     4
 10
72.012497
 20
19.500000
 11
72.512497
 21
19.500000
  0
LINE
  8
0
 62
     4
 10
72.012497
 20
20.000000
 11
72.012497
 21
0.000000
  0
LINE
  8
0
 62
     4
 10
82.012497
 20
20.000000
 11
82.012497
 21
0.000000
  0
LINE
  8
0
 62
     4
 10
72.012497
 20
0.000000
 11
82.012497
 21
0.000000
  0
LINE
  8
0
  6
CENTER
 62
     1
 10
77.012497
 20
29.889877
 11
77.012497
 21
-1.880985
  0
LINE
  8
0
  6
DASHED
 10
-112.987488
 20
-71.249649
 11
-102.987488
 21
-71.249649
  0
LINE
  8
0
 62
     4
 10
-102.787491
 20
-70.249649
 11
-102.787491
 21
-70.292435
  0
LINE
  8
0
 62
     4
 10
-111.837494
 20
-41.249649
 11
-104.137512
 21
-41.249649
  0
LINE
  8
0
  6
PHANTOM
 62
     1
 10
-105.234833
 20
-38.943249
 11
-110.773598
 21
-36.360481
  0
LINE
  8
0
  6
PHANTOM
 62
     1
 10
-105.241035
 20
-37.836971
 11
-110.724419
 21
-35.280022
  0
LINE
  8
0
 62
     4
 10
-104.137512
 20
-41.249649
 11
-104.137512
 21
-49.249649
  0
LINE
  8
0
 62
     4
 10
-105.137497
 20
-41.249649
 11
-105.137497
 21
-49.249649
  0
LINE
  8
0
 62
     4
 10
-111.837494
 20
-41.249649
 11
-111.837494
 21
-49.249649
  0
LINE
  8
0
 62
     4
 10
-110.837494
 20
-41.249649
 11
-110.837494
 21
-49.249649
  0
LINE
  8
0
 62
     4
 10
-102.987587
 20
-54.249664
 11
-103.385101
 21
-49.706078
  0
LINE
  8
0
 62
     4
 10
-112.987503
 20
-54.249649
 11
-112.589996
 21
-49.706078
  0
LINE
  8
0
 62
     4
 10
-112.091873
 20
-49.249649
 11
-103.883087
 21
-49.249649
  0
LINE
  8
0
 62
     4
 10
-112.987488
 20
-54.249649
 11
-102.987488
 21
-54.249649
  0
LINE
  8
0
 62
     4
 10
-102.987488
 20
-54.249649
 11
-102.987488
 21
-57.249649
  0
LINE
  8
0
 62
     4
 10
-112.987488
 20
-54.249649
 11
-112.987488
 21
-57.249649
  0
LINE
  8
0
 62
     4
 10
-109.887497
 20
-36.773651
 11
-109.887497
 21
-41.249649
  0
LINE
  8
0
 62
     4
 10
-108.587494
 20
-37.379837
 11
-108.587494
 21
-41.249649
  0
LINE
  8
0
 62
     4
 10
-107.387497
 20
-37.939407
 11
-107.387497
 21
-41.249649
  0
LINE
  8
0
 62
     4
 10
-106.087494
 20
-38.545609
 11
-106.087494
 21
-41.249649
  0
LINE
  8
0
 62
     4
 10
-107.387482
 20
-33.749649
 11
-106.087479
 21
-33.749649
  0
LINE
  8
0
 62
     4
 10
-106.987488
 20
-30.249649
 11
-106.487488
 21
-30.249649
  0
LINE
  8
0
 62
     4
 10
-109.487488
 20
-30.249649
 11
-108.987488
 21
-30.249649
  0
LINE
  8
0
 62
     4
 10
-109.887482
 20
-33.749649
 11
-108.587479
 21
-33.749649
  0
LINE
  8
0
 62
     4
 10
-106.987488
 20
-30.249664
 11
-106.987488
 21
-33.749664
  0
LINE
  8
0
 62
     4
 10
-106.487488
 20
-30.249664
 11
-106.487488
 21
-33.749664
  0
LINE
  8
0
 62
     4
 10
-109.487488
 20
-30.249664
 11
-109.487488
 21
-33.749664
  0
LINE
  8
0
 62
     4
 10
-108.987488
 20
-30.249664
 11
-108.987488
 21
-33.749664
  0
LINE
  8
0
 62
     4
 10
-109.887497
 20
-33.749664
 11
-109.887497
 21
-35.670273
  0
LINE
  8
0
 62
     4
 10
-108.587494
 20
-33.749664
 11
-108.587494
 21
-36.276474
  0
LINE
  8
0
 62
     4
 10
-106.087494
 20
-33.749664
 11
-106.087494
 21
-37.442230
  0
LINE
  8
0
 62
     4
 10
-107.387497
 20
-33.749664
 11
-107.387497
 21
-36.836029
  0
LINE
  8
0
  6
CENTER
 62
     1
 10
-109.237488
 20
-29.046234
 11
-109.237488
 21
-43.447052
  0
LINE
  8
0
  6
CENTER
 62
     1
 10
-106.737488
 20
-28.978424
 11
-106.737488
 21
-43.447052
  0
LINE
  8
0
  6
DASHED
 10
-109.987488
 20
-56.149658
 11
-109.987488
 21
-57.249649
  0
LINE
  8
0
  6
DASHED
 10
-105.987488
 20
-56.149658
 11
-109.987488
 21
-56.149658
  0
LINE
  8
0
 62
     4
 10
-107.987488
 20
-56.328278
 11
-107.987488
 21
-57.249649
  0
LINE
  8
0
  6
DASHED
 10
-105.987488
 20
-56.149658
 11
-105.987488
 21
-57.249649
  0
LINE
  8
0
  6
CENTER
 62
     2
 10
-104.687485
 20
-67.049652
 11
-104.687485
 21
-72.049652
  0
LINE
  8
0
  6
CENTER
 62
     2
 10
-111.287491
 20
-56.449646
 11
-111.287491
 21
-61.449646
  0
LINE
  8
0
  6
CENTER
 62
     2
 10
-107.187485
 20
-69.549652
 11
-102.187485
 21
-69.549652
  0
LINE
  8
0
  6
CENTER
 62
     2
 10
-113.787491
 20
-58.949646
 11
-108.787491
 21
-58.949646
  0
LINE
  8
0
  6
DASHED
 10
-104.687485
 20
-67.749649
 11
-102.987488
 21
-67.749649
  0
LINE
  8
0
  6
DASHED
 10
-111.287491
 20
-60.749649
 11
-112.987488
 21
-60.749649
  0
LINE
  8
0
  6
DASHED
 10
-106.487488
 20
-69.549652
 11
-106.487488
 21
-71.249649
  0
LINE
  8
0
  6
DASHED
 10
-109.487488
 20
-58.949646
 11
-109.487488
 21
-57.249649
  0
LINE
  8
0
  6
DASHED
 10
-102.987488
 20
-57.249649
 11
-112.987488
 21
-57.249649
  0
LINE
  8
0
  6
CENTER
 62
     1
 10
-107.987488
 20
-39.280350
 11
-107.987488
 21
-73.196167
  0
LINE
  8
0
  6
DASHED
 10
-111.994598
 20
-58.242535
 11
-110.580383
 21
-59.656750
  0
LINE
  8
0
  6
DASHED
 10
-110.580383
 20
-58.242535
 11
-111.994598
 21
-59.656750
  0
LINE
  8
0
  6
DASHED
 10
-105.394592
 20
-68.842545
 11
-103.980377
 21
-70.256760
  0
LINE
  8
0
  6
DASHED
 10
-103.980377
 20
-68.842545
 11
-105.394592
 21
-70.256760
  0
LINE
  8
0
  6
DASHED
 10
-112.987488
 20
-57.249649
 11
-112.987488
 21
-71.249649
  0
LINE
  8
0
  6
DASHED
 10
-102.987488
 20
-57.249649
 11
-102.987488
 21
-71.249649
  0
LINE
  8
0
  6
CENTER
 62
     1
 10
-62.237511
 20
22.333008
 11
-62.237511
 21
-1.195874
  0
LINE
  8
0
 62
     4
 10
-55.237511
 20
-0.000328
 11
-72.237411
 21
-0.000328
  0
LINE
  8
0
 62
     4
 10
-69.237511
 20
20.599670
 11
-69.237511
 21
-0.000328
  0
LINE
  8
0
 62
     4
 10
-55.237511
 20
19.999680
 11
-55.237511
 21
-0.000328
  0
LINE
  8
0
 62
     4
 10
-66.071815
 20
20.499680
 11
-55.737511
 21
20.499680
  0
LINE
  8
0
 62
     4
 10
-55.237511
 20
19.499680
 11
-76.737503
 21
19.499680
  0
LINE
  8
0
 62
     4
 10
-65.537514
 20
20.299683
 11
-69.137512
 21
20.299683
  0
LINE
  8
0
 62
     4
 10
-65.537514
 20
20.499680
 11
-65.537514
 21
20.299667
  0
LINE
  8
0
 62
     4
 10
-57.837509
 20
20.899673
 11
-56.037514
 21
20.899673
  0
LINE
  8
0
 62
     4
 10
-66.637505
 20
20.899673
 11
-68.437508
 21
20.899673
  0
LINE
  8
0
 62
     4
 10
-77.237503
 20
18.999680
 11
-77.237503
 21
2.649742
  0
LINE
  8
0
 62
     4
 10
-72.237473
 20
-0.000302
 11
-76.948776
 21
2.196616
  0
LINE
  8
0
 62
     4
 10
-85.237503
 20
14.499687
 11
-85.237503
 21
18.599670
  0
LINE
  8
0
 62
     4
 10
-78.633232
 20
20.599596
 11
-83.737518
 21
21.499617
  0
LINE
  8
0
 62
     4
 10
-85.237503
 20
20.499664
 11
-85.237503
 21
21.499664
  0
LINE
  8
0
 62
     4
 10
-77.569267
 20
19.396757
 11
-83.911118
 21
20.514994
  0
LINE
  8
0
 62
     4
 10
-85.237473
 20
18.599651
 11
-84.937477
 21
18.899652
  0
LINE
  8
0
 62
     4
 10
-84.237503
 20
14.499687
 11
-84.237503
 21
15.099678
  0
LINE
  8
0
 62
     4
 10
-84.237503
 20
15.099678
 11
-79.237503
 21
15.099678
  0
LINE
  8
0
 62
     4
 10
-79.237503
 20
14.499687
 11
-79.237503
 21
15.099678
  0
LINE
  8
0
 62
     4
 10
-78.737549
 20
18.599644
 11
-79.037544
 21
18.899637
  0
LINE
  8
0
 62
     4
 10
-78.633240
 20
20.599670
 11
-69.237511
 21
20.599670
  0
LINE
  8
0
 62
     4
 10
-89.229034
 20
17.649689
 11
-85.237503
 21
17.649689
  0
LINE
  8
0
 62
     4
 10
-92.737503
 20
16.349686
 11
-89.633179
 21
16.349686
  0
LINE
  8
0
 62
     4
 10
-92.737503
 20
17.649689
 11
-90.383728
 21
17.649689
  0
LINE
  8
0
 62
     4
 10
-92.737503
 20
17.649689
 11
-92.737503
 21
16.349686
  0
LINE
  8
0
 62
     4
 10
-96.237503
 20
17.249680
 11
-96.237503
 21
16.749680
  0
LINE
  8
0
 62
     4
 10
-96.237503
 20
17.249680
 11
-92.737503
 21
17.249680
  0
LINE
  8
0
 62
     4
 10
-96.237503
 20
16.749680
 11
-92.737503
 21
16.749680
  0
LINE
  8
0
 62
     4
 10
-88.478470
 20
16.349686
 11
-85.237503
 21
16.349686
  0
LINE
  8
0
 62
     4
 10
-85.237503
 20
21.499664
 11
-83.737503
 21
21.499664
  0
LINE
  8
0
 62
     4
 10
-85.237503
 20
20.499664
 11
-83.824982
 21
20.499664
  0
LINE
  8
0
 62
     4
 10
-84.937500
 20
18.899673
 11
-79.037491
 21
18.899673
  0
LINE
  8
0
 62
     4
 10
-85.237503
 20
18.599670
 11
-77.639023
 21
18.599670
  0
LINE
  8
0
 62
     4
 10
-85.237503
 20
17.899673
 11
-77.237503
 21
17.899673
  0
LINE
  8
0
 62
     4
 10
-85.237503
 20
16.099670
 11
-77.237503
 21
16.099670
  0
LINE
  8
0
 62
     4
 10
-77.237503
 20
14.499687
 11
-79.237503
 21
14.499687
  0
LINE
  8
0
 62
     4
 10
-84.237503
 20
14.499687
 11
-85.237503
 21
14.499687
  0
LINE
  8
0
 62
     4
 10
-72.126648
 20
-0.000328
 11
-72.126648
 21
19.499680
  0
LINE
  8
0
  6
CENTER
 62
     1
 10
-96.237503
 20
16.999680
 11
-84.070587
 21
16.999680
  0
LINE
  8
0
  6
PHANTOM
 62
     1
 10
-87.901085
 20
15.349687
 11
-89.806343
 21
18.649691
  0
LINE
  8
0
  6
PHANTOM
 62
     1
 10
-89.055817
 20
15.349667
 11
-90.961075
 21
18.649670
  0
LINE
  8
0
  6
PHANTOM
 62
     1
 10
-126.919167
 20
15.349682
 11
-125.013908
 21
18.649685
  0
LINE
  8
0
  6
PHANTOM
 62
     1
 10
-128.073898
 20
15.349680
 11
-126.168640
 21
18.649685
  0
LINE
  8
0
  6
CENTER
 62
     1
 10
-119.737473
 20
16.999687
 11
-131.904388
 21
16.999687
  0
LINE
  8
0
 62
     4
 10
-143.848328
 20
-0.000328
 11
-143.848328
 21
19.499687
  0
LINE
  8
0
 62
     4
 10
-131.737473
 20
14.499687
 11
-130.737473
 21
14.499687
  0
LINE
  8
0
 62
     4
 10
-138.737473
 20
14.499687
 11
-136.737473
 21
14.499687
  0
LINE
  8
0
 62
     4
 10
-130.737473
 20
16.099678
 11
-138.737473
 21
16.099678
  0
LINE
  8
0
 62
     4
 10
-130.737473
 20
17.899681
 11
-138.737473
 21
17.899681
  0
LINE
  8
0
 62
     4
 10
-130.737473
 20
18.599678
 11
-138.335953
 21
18.599678
  0
LINE
  8
0
 62
     4
 10
-131.037476
 20
18.899681
 11
-136.937485
 21
18.899681
  0
LINE
  8
0
 62
     4
 10
-130.737473
 20
20.499672
 11
-132.149994
 21
20.499672
  0
LINE
  8
0
 62
     4
 10
-130.737473
 20
21.499672
 11
-132.237473
 21
21.499672
  0
LINE
  8
0
 62
     4
 10
-127.496506
 20
16.349693
 11
-130.737473
 21
16.349693
  0
LINE
  8
0
 62
     4
 10
-119.737473
 20
16.749687
 11
-123.237473
 21
16.749687
  0
LINE
  8
0
 62
     4
 10
-119.737473
 20
17.249687
 11
-123.237473
 21
17.249687
  0
LINE
  8
0
 62
     4
 10
-119.737473
 20
17.249687
 11
-119.737473
 21
16.749687
  0
LINE
  8
0
 62
     4
 10
-123.237473
 20
17.649696
 11
-123.237473
 21
16.349693
  0
LINE
  8
0
 62
     4
 10
-123.237473
 20
17.649696
 11
-125.591248
 21
17.649696
  0
LINE
  8
0
 62
     4
 10
-123.237473
 20
16.349693
 11
-126.341797
 21
16.349693
  0
LINE
  8
0
 62
     4
 10
-126.745941
 20
17.649696
 11
-130.737473
 21
17.649696
  0
LINE
  8
0
 62
     4
 10
-137.341736
 20
20.599678
 11
-146.737473
 21
20.599678
  0
LINE
  8
0
 62
     4
 10
-137.237427
 20
18.599649
 11
-136.937439
 21
18.899645
  0
LINE
  8
0
 62
     4
 10
-136.737473
 20
14.499687
 11
-136.737473
 21
15.099678
  0
LINE
  8
0
 62
     4
 10
-131.737473
 20
15.099678
 11
-136.737473
 21
15.099678
  0
LINE
  8
0
 62
     4
 10
-131.737473
 20
14.499687
 11
-131.737473
 21
15.099678
  0
LINE
  8
0
 62
     4
 10
-130.737503
 20
18.599648
 11
-131.037506
 21
18.899651
  0
LINE
  8
0
 62
     4
 10
-138.405701
 20
19.396753
 11
-132.063858
 21
20.514994
  0
LINE
  8
0
 62
     4
 10
-130.737473
 20
20.499672
 11
-130.737473
 21
21.499672
  0
LINE
  8
0
 62
     4
 10
-137.341736
 20
20.599607
 11
-132.237473
 21
21.499628
  0
LINE
  8
0
 62
     4
 10
-130.737473
 20
14.499687
 11
-130.737473
 21
18.599678
  0
LINE
  8
0
 62
     4
 10
-143.737503
 20
-0.000300
 11
-139.026184
 21
2.196623
  0
LINE
  8
0
 62
     4
 10
-138.737473
 20
18.999687
 11
-138.737473
 21
2.649742
  0
LINE
  8
0
 62
     4
 10
-149.337479
 20
20.899681
 11
-147.537476
 21
20.899681
  0
LINE
  8
0
 62
     4
 10
-158.137482
 20
20.899681
 11
-159.937469
 21
20.899681
  0
LINE
  8
0
 62
     4
 10
-157.037476
 20
20.499687
 11
-157.037476
 21
20.299675
  0
LINE
  8
0
 62
     4
 10
-157.037476
 20
20.299690
 11
-160.637482
 21
20.299690
  0
LINE
  8
0
 62
     4
 10
-160.737473
 20
19.499687
 11
-139.237473
 21
19.499687
  0
LINE
  8
0
 62
     4
 10
-147.237473
 20
20.499687
 11
-157.571777
 21
20.499687
  0
LINE
  8
0
 62
     4
 10
-160.737473
 20
19.999687
 11
-160.737473
 21
-0.000328
  0
LINE
  8
0
 62
     4
 10
-146.737473
 20
20.599678
 11
-146.737473
 21
-0.000328
  0
LINE
  8
0
 62
     4
 10
-160.737473
 20
-0.000328
 11
-143.737579
 21
-0.000328
  0
LINE
  8
0
  6
CENTER
 62
     1
 10
-153.737473
 20
22.333015
 11
-153.737473
 21
-1.195874
  0
LINE
  8
0
 62
     4
 10
-105.237488
 20
21.599991
 11
-105.237488
 21
17.899979
  0
LINE
  8
0
 62
     4
 10
-110.737488
 20
21.599991
 11
-105.237488
 21
21.599991
  0
LINE
  8
0
 62
     4
 10
-110.737488
 20
21.599991
 11
-110.737488
 21
17.899979
  0
LINE
  8
0
 62
     4
 10
-105.137497
 20
16.000000
 11
-105.137497
 21
14.500000
  0
LINE
  8
0
 62
     4
 10
-110.837479
 20
16.000000
 11
-110.837479
 21
14.500000
  0
LINE
  8
0
 62
     4
 10
-105.137497
 20
16.000000
 11
-104.137497
 21
16.000000
  0
LINE
  8
0
 62
     4
 10
-111.837494
 20
16.000000
 11
-110.837494
 21
16.000000
  0
LINE
  8
0
 62
     4
 10
-111.837494
 20
18.000000
 11
-110.837494
 21
18.000000
  0
LINE
  8
0
 62
     4
 10
-105.137497
 20
18.000000
 11
-104.137497
 21
18.000000
  0
LINE
  8
0
 62
     4
 10
-110.837494
 20
14.500000
 11
-105.137497
 21
14.500000
  0
LINE
  8
0
 62
     4
 10
-105.137497
 20
19.500000
 11
-105.137497
 21
18.000000
  0
LINE
  8
0
 62
     4
 10
-110.837479
 20
19.500000
 11
-110.837479
 21
18.000000
  0
LINE
  8
0
 62
     4
 10
-104.137497
 20
18.000000
 11
-104.137497
 21
16.000000
  0
LINE
  8
0
 62
     4
 10
-111.837479
 20
18.000000
 11
-111.837479
 21
16.000000
  0
LINE
  8
0
 62
     4
 10
-107.687485
 20
18.249939
 11
-105.787491
 21
18.249939
  0
LINE
  8
0
 62
     4
 10
-107.687485
 20
18.249939
 11
-107.687485
 21
16.149979
  0
LINE
  8
0
 62
     4
 10
-105.787491
 20
18.249939
 11
-105.787491
 21
16.149979
  0
LINE
  8
0
 62
     4
 10
-107.687485
 20
16.149979
 11
-105.787491
 21
16.149979
  0
LINE
  8
0
 62
     4
 10
-107.687485
 20
18.049988
 11
-105.787491
 21
18.049988
  0
LINE
  8
0
 62
     4
 10
-110.187485
 20
16.149979
 11
-108.287491
 21
16.149979
  0
LINE
  8
0
 62
     4
 10
-110.187485
 20
18.049988
 11
-108.287491
 21
18.049988
  0
LINE
  8
0
 62
     4
 10
-110.187485
 20
18.249939
 11
-110.187485
 21
16.149979
  0
LINE
  8
0
 62
     4
 10
-108.287491
 20
18.249939
 11
-108.287491
 21
16.149979
  0
LINE
  8
0
 62
     4
 10
-105.271805
 20
18.600037
 11
-105.571808
 21
18.900042
  0
LINE
  8
0
 62
     4
 10
-110.737488
 20
18.565590
 11
-110.403114
 21
18.899961
  0
LINE
  8
0
 62
     4
 10
-110.403122
 20
18.899979
 11
-105.571869
 21
18.899979
  0
LINE
  8
0
 62
     4
 10
-110.703125
 20
18.599991
 11
-105.271881
 21
18.599991
  0
LINE
  8
0
 62
     4
 10
-110.737488
 20
19.599991
 11
-105.237488
 21
19.599991
  0
LINE
  8
0
 62
     4
 10
-110.737488
 20
20.599991
 11
-105.237488
 21
20.599991
  0
LINE
  8
0
 62
     4
 10
-105.237488
 20
17.899979
 11
-104.237488
 21
17.899979
  0
LINE
  8
0
 62
     4
 10
-105.237488
 20
16.099991
 11
-104.237488
 21
16.099991
  0
LINE
  8
0
 62
     4
 10
-104.237488
 20
16.099991
 11
-104.237488
 21
17.899979
  0
LINE
  8
0
 62
     4
 10
-111.737488
 20
16.099991
 11
-111.737488
 21
17.899979
  0
LINE
  8
0
 62
     4
 10
-111.737488
 20
17.899979
 11
-110.737488
 21
17.899979
  0
LINE
  8
0
 62
     4
 10
-111.737488
 20
16.099991
 11
-110.737488
 21
16.099991
  0
LINE
  8
0
 62
     4
 10
-110.737488
 20
14.599991
 11
-105.237488
 21
14.599991
  0
LINE
  8
0
 62
     4
 10
-107.237473
 20
16.150024
 11
-107.237473
 21
15.850037
  0
LINE
  8
0
 62
     4
 10
-106.237503
 20
16.150024
 11
-106.237503
 21
15.850021
  0
LINE
  8
0
 62
     4
 10
-108.737503
 20
16.150009
 11
-108.737503
 21
15.850021
  0
LINE
  8
0
 62
     4
 10
-109.737473
 20
16.150009
 11
-109.737473
 21
15.850021
  0
LINE
  8
0
 62
     4
 10
-107.237473
 20
15.850037
 11
-106.237518
 21
15.850037
  0
LINE
  8
0
 62
     4
 10
-109.737473
 20
15.850021
 11
-108.737518
 21
15.850021
  0
LINE
  8
0
 62
     4
 10
-110.187469
 20
18.249939
 11
-108.287491
 21
18.249939
  0
LINE
  8
0
  6
CENTER
 62
     1
 10
-106.737488
 20
18.449936
 11
-106.737488
 21
15.850037
  0
LINE
  8
0
  6
CENTER
 62
     1
 10
-109.237488
 20
18.449936
 11
-109.237488
 21
15.850021
  0
LINE
  8
0
  6
CENTER
 62
     1
 10
-110.376556
 20
17.099991
 11
-105.562027
 21
17.099991
  0
LINE
  8
0
 62
     4
 10
-105.237488
 20
16.099991
 11
-105.237488
 21
14.599991
  0
LINE
  8
0
 62
     4
 10
-110.737488
 20
16.099991
 11
-110.737488
 21
14.599991
  0
LINE
  8
0
 62
     4
 10
-105.137497
 20
19.500000
 11
-103.487488
 21
19.500000
  0
LINE
  8
0
 62
     4
 10
-103.487488
 20
19.500000
 11
-102.987488
 21
19.500000
  0
LINE
  8
0
 62
     4
 10
-110.737488
 20
20.899994
 11
-112.191452
 21
20.899994
  0
LINE
  8
0
 62
     4
 10
-105.237488
 20
20.300003
 11
-103.083527
 21
20.300003
  0
LINE
  8
0
 62
     4
 10
-105.237488
 20
20.899994
 11
-103.783524
 21
20.899994
  0
LINE
  8
0
 62
     4
 10
-112.257492
 20
1.212387
 11
-103.717484
 21
1.212387
  0
LINE
  8
0
 62
     4
 10
-112.757492
 20
19.000000
 11
-112.757492
 21
1.712387
  0
LINE
  8
0
 62
     4
 10
-103.217484
 20
19.000000
 11
-103.217484
 21
1.712387
  0
LINE
  8
0
 62
     4
 10
-112.487488
 20
19.500000
 11
-110.837494
 21
19.500000
  0
LINE
  8
0
 62
     4
 10
-112.487488
 20
20.500000
 11
-110.737488
 21
20.500000
  0
LINE
  8
0
 62
     4
 10
-112.987488
 20
19.500000
 11
-112.487488
 21
19.500000
  0
LINE
  8
0
 62
     4
 10
-112.987488
 20
20.000000
 11
-112.987488
 21
0.000000
  0
LINE
  8
0
 62
     4
 10
-102.987488
 20
20.000000
 11
-102.987488
 21
0.000000
  0
LINE
  8
0
  6
CENTER
 62
     1
 10
-107.987488
 20
23.333328
 11
-107.987488
 21
-1.195561
  0
LINE
  8
0
 62
     4
 10
-112.987488
 20
0.000000
 11
-102.987488
 21
0.000000
  0
LINE
  8
0
 10
114.800003
 20
41.500000
 11
194.800003
 21
41.500000
  0
LINE
  8
0
 10
-9.724998
 20
132.600006
 11
-9.724998
 21
-133.500000
  0
LINE
  8
0
 10
114.800003
 20
117.600006
 11
114.800003
 21
41.500000
  0
LINE
  8
0
 10
-109.250000
 20
132.600006
 11
-109.250000
 21
117.600006
  0
LINE
  8
0
 10
-194.250000
 20
117.600006
 11
-109.250000
 21
117.600006
  0
LINE
  8
0
 10
109.800003
 20
117.600006
 11
194.800003
 21
117.600006
  0
LINE
  8
0
 10
109.800003
 20
132.600006
 11
109.800003
 21
117.600006
  0
LINE
  8
0
 10
109.800003
 20
-118.500000
 11
194.800003
 21
-118.500000
  0
LINE
  8
0
 10
109.800003
 20
-118.500000
 11
109.800003
 21
-133.500000
  0
LINE
  8
0
 10
-194.250000
 20
-133.500000
 11
194.800003
 21
-133.500000
  0
LINE
  8
0
 10
-194.250000
 20
132.600006
 11
-194.250000
 21
-133.500000
  0
LINE
  8
0
 10
194.800003
 20
132.600006
 11
194.800003
 21
-133.500000
  0
LINE
  8
0
 10
-194.250000
 20
132.600006
 11
194.800003
 21
132.600006
  0
CIRCLE
  8
0
 62
     4
 10
148.550003
 20
85.000000
 40
0.650000
  0
CIRCLE
  8
0
 62
     4
 10
151.050003
 20
85.000000
 40
0.650000
  0
ARC
  8
0
 62
     4
 10
151.050003
 20
85.000000
 40
1.500000
 50
270.000000
 51
90.000000
  0
ARC
  8
0
 62
     4
 10
148.550003
 20
85.000000
 40
1.500000
 50
90.000000
 51
270.000000
  0
ARC
  8
0
 62
     4
 10
154.300003
 20
88.000000
 40
0.500000
 50
0.000000
 51
90.000000
  0
ARC
  8
0
 62
     4
 10
145.300003
 20
88.000000
 40
0.500000
 50
90.000000
 51
180.000000
  0
ARC
  8
0
 62
     4
 10
145.529999
 20
88.000000
 40
0.500000
 50
90.000000
 51
180.000000
  0
ARC
  8
0
 62
     4
 10
154.070007
 20
88.000000
 40
0.500000
 50
0.000000
 51
90.000000
  0
ARC
  8
0
 62
     4
 10
154.070007
 20
71.712402
 40
0.500000
 50
270.000000
 51
0.000000
  0
ARC
  8
0
 62
     4
 10
145.529999
 20
71.712402
 40
0.500000
 50
180.000000
 51
270.000000
  0
ARC
  8
0
 62
     4
 10
145.596054
 20
90.300003
 40
0.599998
 50
90.000000
 51
170.042282
  0
ARC
  8
0
 62
     4
 10
147.396042
 20
90.300003
 40
0.600002
 50
19.470829
 51
90.000000
  0
ARC
  8
0
 62
     4
 10
152.203964
 20
90.300003
 40
0.599998
 50
90.000000
 51
180.000000
  0
ARC
  8
0
 62
     4
 10
154.003983
 20
90.300003
 40
0.600006
 50
0.000000
 51
90.000000
  0
ARC
  8
0
 62
     4
 10
154.300003
 20
90.000000
 40
0.500000
 50
0.000000
 51
53.853840
  0
ARC
  8
0
 62
     4
 10
145.300003
 20
90.000000
 40
0.500000
 50
90.000000
 51
180.000000
  0
CIRCLE
  8
0
  6
DASHED
 10
80.312500
 20
-69.549652
 40
1.750000
  0
CIRCLE
  8
0
  6
DASHED
 10
73.712494
 20
-58.949646
 40
1.750000
  0
ARC
  8
0
 62
     4
 10
81.116898
 20
-49.749649
 40
0.500003
 50
4.999676
 51
90.000000
  0
ARC
  8
0
 62
     4
 10
72.908112
 20
-49.749649
 40
0.500000
 50
90.000000
 51
174.999893
  0
ARC
  8
0
  6
DASHED
 10
76.012497
 20
-59.038010
 40
2.888354
 50
69.743835
 51
110.255997
  0
ARC
  8
0
  6
DASHED
 10
78.012497
 20
-59.038010
 40
2.888354
 50
69.743835
 51
110.256142
  0
ARC
  8
0
 62
     4
 10
112.873367
 20
0.500000
 40
0.500001
 50
244.999771
 51
270.000000
  0
ARC
  8
0
 62
     4
 10
112.873367
 20
0.500000
 40
0.500001
 50
244.999771
 51
270.000000
  0
ARC
  8
0
 62
     4
 10
108.260986
 20
19.901520
 40
0.401524
 50
189.999893
 51
0.000000
  0
ARC
  8
0
 62
     4
 10
116.262512
 20
19.999985
 40
0.500002
 50
125.503120
 51
180.000000
  0
ARC
  8
0
 62
     4
 10
129.262512
 20
19.999985
 40
0.500000
 50
0.000000
 51
90.000000
  0
ARC
  8
0
 62
     4
 10
128.962509
 20
20.299988
 40
0.600003
 50
10.276566
 51
90.000000
  0
ARC
  8
0
 62
     4
 10
127.162521
 20
20.299988
 40
0.600000
 50
90.000000
 51
160.529175
  0
ARC
  8
0
 62
     4
 10
116.562515
 20
20.299988
 40
0.600000
 50
90.000000
 51
180.000000
  0
ARC
  8
0
 62
     4
 10
118.362518
 20
20.299988
 40
0.599998
 50
0.000000
 51
90.000000
  0
ARC
  8
0
 62
     4
 10
112.873367
 20
0.500000
 40
0.500001
 50
244.999771
 51
270.000000
  0
ARC
  8
0
 62
     4
 10
108.262512
 20
2.650070
 40
0.500000
 50
180.000031
 51
245.000595
  0
ARC
  8
0
 62
     4
 10
108.262512
 20
18.999985
 40
0.500000
 50
90.000000
 51
180.000000
  0
ARC
  8
0
 62
     4
 10
45.762497
 20
18.999985
 40
0.500000
 50
0.000000
 51
90.000000
  0
ARC
  8
0
 62
     4
 10
45.762497
 20
2.650070
 40
0.500000
 50
294.999786
 51
0.000000
  0
ARC
  8
0
 62
     4
 10
41.151642
 20
0.500000
 40
0.500000
 50
270.000000
 51
295.000244
  0
ARC
  8
0
 62
     4
 10
35.662491
 20
20.299988
 40
0.600000
 50
90.000000
 51
160.528702
  0
ARC
  8
0
 62
     4
 10
37.462494
 20
20.299988
 40
0.599999
 50
10.276630
 51
90.000000
  0
ARC
  8
0
 62
     4
 10
26.862488
 20
20.299988
 40
0.600000
 50
0.000000
 51
90.000000
  0
ARC
  8
0
 62
     4
 10
25.062500
 20
20.299988
 40
0.600000
 50
90.000000
 51
180.000000
  0
ARC
  8
0
 62
     4
 10
24.762497
 20
19.999985
 40
0.500000
 50
125.503250
 51
180.000000
  0
ARC
  8
0
 62
     4
 10
37.762497
 20
19.999985
 40
0.500000
 50
0.000000
 51
90.000000
  0
ARC
  8
0
 62
     4
 10
45.764023
 20
19.901520
 40
0.401524
 50
180.000000
 51
350.000122
  0
ARC
  8
0
 62
     4
 10
41.151642
 20
0.500000
 40
0.500000
 50
270.000000
 51
295.000244
  0
ARC
  8
0
 62
     4
 10
41.151642
 20
0.500000
 40
0.500000
 50
270.000000
 51
295.000244
  0
ARC
  8
0
 62
     4
 10
81.512497
 20
19.000000
 40
0.500000
 50
0.000000
 51
90.000000
  0
ARC
  8
0
 62
     4
 10
72.512497
 20
19.000000
 40
0.500000
 50
90.000000
 51
180.000000
  0
ARC
  8
0
 62
     4
 10
72.742477
 20
19.000000
 40
0.500000
 50
90.000000
 51
180.000000
  0
ARC
  8
0
 62
     4
 10
81.282486
 20
19.000000
 40
0.500000
 50
0.000000
 51
90.000000
  0
ARC
  8
0
 62
     4
 10
81.282486
 20
1.712402
 40
0.500000
 50
270.000000
 51
0.000000
  0
ARC
  8
0
 62
     4
 10
72.742477
 20
1.712402
 40
0.500000
 50
179.999954
 51
270.000000
  0
ARC
  8
0
 62
     4
 10
72.808533
 20
20.300003
 40
0.600000
 50
90.000000
 51
170.041931
  0
ARC
  8
0
 62
     4
 10
81.216461
 20
20.300003
 40
0.599998
 50
0.000000
 51
90.000000
  0
ARC
  8
0
 62
     4
 10
81.512497
 20
20.000000
 40
0.500000
 50
0.000000
 51
53.853840
  0
ARC
  8
0
 62
     4
 10
72.512497
 20
20.000000
 40
0.500000
 50
90.000000
 51
180.000000
  0
CIRCLE
  8
0
  6
DASHED
 10
-104.687485
 20
-69.549652
 40
1.750000
  0
CIRCLE
  8
0
  6
DASHED
 10
-111.287491
 20
-58.949646
 40
1.750000
  0
ARC
  8
0
 62
     4
 10
-103.883087
 20
-49.749649
 40
0.500003
 50
4.999676
 51
90.000000
  0
ARC
  8
0
 62
     4
 10
-112.091873
 20
-49.749649
 40
0.500000
 50
90.000000
 51
174.999893
  0
ARC
  8
0
  6
DASHED
 10
-108.987488
 20
-59.038010
 40
2.888354
 50
69.743835
 51
110.255997
  0
ARC
  8
0
  6
DASHED
 10
-106.987488
 20
-59.038010
 40
2.888354
 50
69.743835
 51
110.256142
  0
ARC
  8
0
  6
DASHED
 10
-111.287491
 20
-58.949650
 40
1.799999
 50
270.000000
 51
0.000000
  0
ARC
  8
0
  6
DASHED
 10
-104.687485
 20
-69.549652
 40
1.800003
 50
90.000000
 51
180.000000
  0
ARC
  8
0
 62
     4
 10
-72.126648
 20
0.499672
 40
0.500001
 50
244.999771
 51
270.000000
  0
ARC
  8
0
 62
     4
 10
-72.126648
 20
0.499672
 40
0.500001
 50
244.999771
 51
270.000000
  0
ARC
  8
0
 62
     4
 10
-77.639038
 20
19.001205
 40
0.401527
 50
0.000000
 51
79.999985
  0
ARC
  8
0
 62
     4
 10
-77.639038
 20
19.001205
 40
0.401529
 50
270.000000
 51
0.000000
  0
ARC
  8
0
 62
     4
 10
-68.737511
 20
19.999680
 40
0.500002
 50
125.503120
 51
180.000000
  0
ARC
  8
0
 62
     4
 10
-55.737511
 20
19.999680
 40
0.500000
 50
0.000000
 51
90.000000
  0
ARC
  8
0
 62
     4
 10
-56.037514
 20
20.299683
 40
0.599999
 50
10.276630
 51
90.000000
  0
ARC
  8
0
 62
     4
 10
-57.837509
 20
20.299683
 40
0.600000
 50
90.000000
 51
160.529053
  0
ARC
  8
0
 62
     4
 10
-68.437508
 20
20.299683
 40
0.600000
 50
90.000000
 51
180.000000
  0
ARC
  8
0
 62
     4
 10
-66.637505
 20
20.299683
 40
0.599998
 50
0.000000
 51
90.000000
  0
ARC
  8
0
 62
     4
 10
-72.126648
 20
0.499672
 40
0.500001
 50
244.999771
 51
270.000000
  0
ARC
  8
0
 62
     4
 10
-76.737503
 20
2.649757
 40
0.500000
 50
180.000031
 51
245.000595
  0
ARC
  8
0
 62
     4
 10
-76.737503
 20
18.999680
 40
0.500000
 50
90.000000
 51
180.000000
  0
ARC
  8
0
 62
     4
 10
-139.237473
 20
18.999687
 40
0.500000
 50
0.000000
 51
90.000000
  0
ARC
  8
0
 62
     4
 10
-139.237473
 20
2.649757
 40
0.499998
 50
294.999390
 51
0.000000
  0
ARC
  8
0
 62
     4
 10
-143.848328
 20
0.499672
 40
0.500000
 50
270.000000
 51
294.999451
  0
ARC
  8
0
 62
     4
 10
-149.337479
 20
20.299690
 40
0.600000
 50
90.000000
 51
160.528824
  0
ARC
  8
0
 62
     4
 10
-147.537476
 20
20.299690
 40
0.600003
 50
10.276566
 51
90.000000
  0
ARC
  8
0
 62
     4
 10
-158.137482
 20
20.299690
 40
0.600006
 50
0.000000
 51
90.000000
  0
ARC
  8
0
 62
     4
 10
-159.937469
 20
20.299690
 40
0.600000
 50
90.000000
 51
180.000000
  0
ARC
  8
0
 62
     4
 10
-160.237473
 20
19.999687
 40
0.500000
 50
125.503250
 51
180.000000
  0
ARC
  8
0
 62
     4
 10
-147.237473
 20
19.999687
 40
0.500000
 50
0.000000
 51
90.000000
  0
ARC
  8
0
 62
     4
 10
-138.335937
 20
19.001213
 40
0.401535
 50
180.000000
 51
270.000000
  0
ARC
  8
0
 62
     4
 10
-138.335937
 20
19.001213
 40
0.401528
 50
99.998947
 51
180.000000
  0
ARC
  8
0
 62
     4
 10
-143.848328
 20
0.499672
 40
0.500000
 50
270.000000
 51
294.999451
  0
ARC
  8
0
 62
     4
 10
-143.848328
 20
0.499672
 40
0.500000
 50
270.000000
 51
294.999451
  0
CIRCLE
  8
0
 62
     4
 10
-106.737503
 20
17.099991
 40
0.849968
  0
CIRCLE
  8
0
 62
     4
 10
-109.237503
 20
17.099976
 40
0.849968
  0
ARC
  8
0
 62
     4
 10
-112.191452
 20
20.300003
 40
0.600000
 50
90.000000
 51
170.041931
  0
ARC
  8
0
 62
     4
 10
-103.783524
 20
20.300003
 40
0.599998
 50
0.000000
 51
90.000000
  0
ARC
  8
0
 62
     4
 10
-103.487488
 20
19.000000
 40
0.500000
 50
0.000000
 51
90.000000
  0
ARC
  8
0
 62
     4
 10
-112.487488
 20
19.000000
 40
0.500000
 50
90.000000
 51
180.000000
  0
ARC
  8
0
 62
     4
 10
-112.257492
 20
19.000000
 40
0.500000
 50
90.000000
 51
180.000000
  0
ARC
  8
0
 62
     4
 10
-103.717484
 20
19.000000
 40
0.500000
 50
0.000000
 51
90.000000
  0
ARC
  8
0
 62
     4
 10
-103.717484
 20
1.712387
 40
0.500000
 50
270.000000
 51
0.000000
  0
ARC
  8
0
 62
     4
 10
-112.257492
 20
1.712387
 40
0.500000
 50
179.999954
 51
270.000000
  0
ARC
  8
0
 62
     4
 10
-103.487488
 20
20.000000
 40
0.500000
 50
0.000000
 51
53.853840
  0
ARC
  8
0
 62
     4
 10
-112.487488
 20
20.000000
 40
0.500000
 50
90.000000
 51
180.000000
  0
TEXT
  8
0
 10
-169.992187
 20
118.050003
 40
4.500000
  1
SOLENOID
 50
0.000000
 41
1.052632
 51
0.000000
  7
STANDARD
  0
TEXT
  8
0
 10
122.157349
 20
104.550003
 40
4.500000
  1
MODEL:-L
 50
0.000000
 41
1.052632
 51
0.000000
  7
STANDARD
  0
TEXT
  8
0
 10
-186.892654
 20
104.550003
 40
4.500000
  1
MODEL:-PLL
 50
0.000000
 41
1.052632
 51
0.000000
  7
STANDARD
  0
TEXT
  8
0
 10
-2.367655
 20
104.550003
 40
4.500000
  1
MODEL:-PSL
 50
0.000000
 41
1.052632
 51
0.000000
  7
STANDARD
  0
TEXT
  8
0
 10
-174.642654
 20
126.050003
 40
4.500000
  1
010 SERIES
 50
0.000000
 41
1.052632
 51
0.000000
  7
STANDARD
  0
TEXT
  8
0
 10
113.700287
 20
-130.669998
 40
6.300000
  1
KOGANEI CORP.
 50
0.000000
 41
1.052632
 51
0.000000
  7
STANDARD
  0
TEXT
  8
0
 10
133.907150
 20
122.050003
 40
4.500000
  1
Ver. 2.0
 50
0.000000
 41
1.052632
 51
0.000000
  7
STANDARD
  0
ENDSEC
  0
EOF
