  0
SECTION
  2
HEADER
  0
ENDSEC
  0
SECTION
  2
TABLES
  0
TABLE
  2
LTYPE
 70
     4
  0
LTYPE
  2
CONTINUOUS
 70
    64
  3
Solid line
 72
    65
 73
     0
 40
0.000000
  0
LTYPE
  2
DASHED
 70
    64
  3
__ __ __ __ __ __ __ __ __ __ __ __ __ __ __
 72
    65
 73
     2
 40
3.500000
 49
2.000000
 49
-1.500000
  0
LTYPE
  2
CENTER
 70
    64
  3
____ _ ____ _ ____ _ ____ _ ____ _ ____ _ ____
 72
    65
 73
     4
 40
17.500000
 49
13.000000
 49
-1.500000
 49
1.500000
 49
-1.500000
  0
LTYPE
  2
PHANTOM
 70
    64
  3
_____ _ _ _____ _ _ _____ _ _ _____ _ _ ____  
 72
    65
 73
     6
 40
15.500000
 49
8.000000
 49
-1.500000
 49
1.500000
 49
-1.500000
 49
1.500000
 49
-1.500000
  0
LTYPE
  2
DASHED1
 70
    64
  3
__ __ __ __ __ __ __ __ __ __ __ __ __ __ __
 72
    65
 73
     2
 40
1.500000
 49
1.000000
 49
-0.500000
  0
LTYPE
  2
DASHED2
 70
    64
  3
__ __ __ __ __ __ __ __ __ __ __ __ __ __ __
 72
    65
 73
     2
 40
3.500000
 49
2.500000
 49
-1.000000
  0
LTYPE
  2
DASHED3
 70
    64
  3
__ __ __ __ __ __ __ __ __ __ __ __ __ __ __
 72
    65
 73
     2
 40
6.000000
 49
4.000000
 49
-2.000000
  0
LTYPE
  2
DASHED4
 70
    64
  3
__ __ __ __ __ __ __ __ __ __ __ __ __ __ __
 72
    65
 73
     2
 40
12.000000
 49
10.000000
 49
-2.000000
  0
LTYPE
  2
DASHED5
 70
    64
  3
__ __ __ __ __ __ __ __ __ __ __ __ __ __ __
 72
    65
 73
     2
 40
17.000000
 49
15.000000
 49
-2.000000
  0
LTYPE
  2
DASHED6
 70
    64
  3
__ __ __ __ __ __ __ __ __ __ __ __ __ __ __
 72
    65
 73
     2
 40
29.000000
 49
27.000000
 49
-2.000000
  0
LTYPE
  2
PHANTOM1
 70
    64
  3
_____ _ _ _____ _ _ _____ _ _ _____ _ _ ____  
 72
    65
 73
     6
 40
31.000000
 49
25.000000
 49
-1.500000
 49
1.000000
 49
-1.000000
 49
1.000000
 49
-1.500000
  0
LTYPE
  2
PHANTOM2
 70
    64
  3
_____ _ _ _____ _ _ _____ _ _ _____ _ _ ____  
 72
    65
 73
     6
 40
36.000000
 49
27.000000
 49
-1.500000
 49
2.500000
 49
-1.000000
 49
2.500000
 49
-1.500000
  0
LTYPE
  2
PHANTOM3
 70
    64
  3
_____ _ _ _____ _ _ _____ _ _ _____ _ _ ____  
 72
    65
 73
     6
 40
78.000000
 49
64.000000
 49
-2.000000
 49
4.000000
 49
-2.000000
 49
4.000000
 49
-2.000000
  0
LTYPE
  2
CENTER1
 70
    64
  3
____ _ ____ _ ____ _ ____ _ ____ _ ____ _ ____
 72
    65
 73
     4
 40
19.000000
 49
14.000000
 49
-1.000000
 49
3.000000
 49
-1.000000
  0
LTYPE
  2
CENTER2
 70
    64
  3
____ _ ____ _ ____ _ ____ _ ____ _ ____ _ ____
 72
    65
 73
     4
 40
28.500000
 49
25.000000
 49
-1.000000
 49
1.500000
 49
-1.000000
  0
LTYPE
  2
CENTER3
 70
    64
  3
____ _ ____ _ ____ _ ____ _ ____ _ ____ _ ____
 72
    65
 73
     4
 40
31.500000
 49
27.000000
 49
-1.000000
 49
2.500000
 49
-1.000000
  0
LTYPE
  2
CENTER4
 70
    64
  3
____ _ ____ _ ____ _ ____ _ ____ _ ____ _ ____
 72
    65
 73
     4
 40
50.000000
 49
45.000000
 49
-1.000000
 49
3.000000
 49
-1.000000
  0
LTYPE
  2
CENTER5
 70
    64
  3
____ _ ____ _ ____ _ ____ _ ____ _ ____ _ ____
 72
    65
 73
     4
 40
100.000000
 49
92.000000
 49
-2.000000
 49
4.000000
 49
-2.000000
  0
LTYPE
  2
SBK1
 70
    64
  3
______ _ _ _ ______ _ _ _ ______ _ _ _ _____  
 72
    65
 73
     8
 40
60.500000
 49
45.000000
 49
-2.000000
 49
2.500000
 49
-2.000000
 49
2.500000
 49
-2.000000
 49
2.500000
 49
-2.000000
  0
LTYPE
  2
SBK2
 70
    64
  3
______ _ _ _ ______ _ _ _ ______ _ _ _ _____  
 72
    65
 73
     8
 40
84.000000
 49
64.000000
 49
-2.000000
 49
4.000000
 49
-2.000000
 49
4.000000
 49
-2.000000
 49
4.000000
 49
-2.000000
  0
LTYPE
  2
STCH
 70
    64
  3
__ __ __ __ __ __ __ __ __ __ __ __ __ __ __
 72
    65
 73
     2
 40
3.000000
 49
1.000000
 49
-2.000000
  0
LTYPE
  2
MTCH
 70
    64
  3
_____ _ _ _____ _ _ _____ _ _ _____ _ _ ____  
 72
    65
 73
     6
 40
80.000000
 49
66.000000
 49
-2.000000
 49
4.000000
 49
-2.000000
 49
4.000000
 49
-2.000000
  0
ENDTAB
  0
TABLE
  2
LAYER
 70
     1
  0
LAYER
  2
0
 70
     0
 62
     7
  6
CONTINUOUS
  0
ENDTAB
  0
TABLE
  2
STYLE
 70
     1
  0
STYLE
  2
STANDARD
 70
     0
 40
0.000000
 41
1.000000
 50
0.000000
 71
     0
 42
0.200000
  3
txt
  4
BIGFONT
  0
ENDTAB
  0
TABLE
  2
VIEW
 70
     0
  0
ENDTAB
  0
ENDSEC
  0
SECTION
  2
BLOCKS
  0
ENDSEC
  0
SECTION
  2
ENTITIES
  0
LINE
  8
0
 62
     4
 10
-48.899902
 20
0.750000
 11
-48.899902
 21
5.350006
  0
LINE
  8
0
  6
CENTER
 62
     1
 10
-49.299896
 20
3.050003
 11
-41.553204
 21
3.050003
  0
LINE
  8
0
 62
     4
 10
-48.399902
 20
5.350006
 11
-48.899902
 21
5.350006
  0
LINE
  8
0
 62
     4
 10
-46.799911
 20
4.800003
 11
-47.899902
 21
4.800003
  0
LINE
  8
0
 62
     4
 10
-46.799911
 20
5.050003
 11
-47.899902
 21
5.050003
  0
LINE
  8
0
 62
     4
 10
-47.899902
 20
4.750000
 11
-48.399902
 21
4.750000
  0
LINE
  8
0
 62
     4
 10
-47.899902
 20
1.350006
 11
-48.399902
 21
1.350006
  0
LINE
  8
0
 62
     4
 10
-46.799911
 20
1.300003
 11
-47.899902
 21
1.300003
  0
LINE
  8
0
 62
     4
 10
-46.799911
 20
1.050003
 11
-47.899902
 21
1.050003
  0
LINE
  8
0
 62
     4
 10
-43.699905
 20
0.800003
 11
-46.799911
 21
0.800003
  0
LINE
  8
0
 62
     4
 10
-46.799911
 20
5.300003
 11
-46.799911
 21
0.800003
  0
LINE
  8
0
 62
     4
 10
-48.399902
 20
5.350006
 11
-48.399902
 21
0.750000
  0
LINE
  8
0
 62
     4
 10
-47.899902
 20
5.050003
 11
-47.899902
 21
1.050003
  0
LINE
  8
0
 62
     4
 10
-48.399902
 20
0.750000
 11
-48.899902
 21
0.750000
  0
LINE
  8
0
 62
     4
 10
-43.699905
 20
5.300003
 11
-43.699905
 21
0.800003
  0
LINE
  8
0
 62
     4
 10
-43.699905
 20
5.300003
 11
-46.799911
 21
5.300003
  0
LINE
  8
0
 62
     4
 10
42.501484
 20
2.750003
 11
43.830009
 21
2.750003
  0
LINE
  8
0
 62
     4
 10
42.501484
 20
3.350003
 11
43.830009
 21
3.350003
  0
LINE
  8
0
 62
     4
 10
39.370186
 20
2.750003
 11
40.698711
 21
2.750003
  0
LINE
  8
0
 62
     4
 10
39.370186
 20
3.350003
 11
40.698711
 21
3.350003
  0
LINE
  8
0
  6
CENTER
 62
     2
 10
41.600098
 20
6.165436
 11
41.600098
 21
0.120364
  0
LINE
  8
0
  6
CENTER
 62
     2
 10
38.850098
 20
3.050003
 11
44.350098
 21
3.050003
  0
LINE
  8
0
  6
CENTER
 62
     2
 10
41.600098
 20
-9.177387
 11
41.600098
 21
26.998566
  0
LINE
  8
0
  6
CENTER
 62
     2
 10
-50.256699
 20
0.349991
 11
-48.635132
 21
0.349991
  0
LINE
  8
0
 10
36.600098
 20
5.349991
 11
36.600098
 21
-8.050003
  0
LINE
  8
0
 10
46.600098
 20
5.349991
 11
46.600098
 21
-8.050003
  0
LINE
  8
0
 10
-138.399994
 20
94.500000
 11
138.350006
 21
94.500000
  0
LINE
  8
0
 10
138.350006
 20
94.500000
 11
138.350006
 21
-94.800003
  0
LINE
  8
0
 10
-138.399994
 20
-94.800003
 11
138.350006
 21
-94.800003
  0
LINE
  8
0
 10
-138.399994
 20
94.500000
 11
-138.399994
 21
-94.800003
  0
LINE
  8
0
 10
73.350006
 20
-84.800003
 11
138.350006
 21
-84.800003
  0
LINE
  8
0
 10
-138.399994
 20
84.500000
 11
-73.399994
 21
84.500000
  0
LINE
  8
0
 10
73.350006
 20
84.500000
 11
138.350006
 21
84.500000
  0
LINE
  8
0
 10
73.350006
 20
-84.800003
 11
73.350006
 21
-94.800003
  0
LINE
  8
0
 10
73.350006
 20
94.500000
 11
73.350006
 21
84.500000
  0
LINE
  8
0
 10
-73.399994
 20
94.500000
 11
-73.399994
 21
84.500000
  0
LINE
  8
0
 10
-48.399902
 20
5.350006
 11
-48.899902
 21
5.350006
  0
LINE
  8
0
  6
CENTER
 62
     2
 10
-55.899902
 20
27.683334
 11
-55.899902
 21
-9.282623
  0
LINE
  8
0
 10
-48.899902
 20
5.349991
 11
-48.899902
 21
-8.050003
  0
LINE
  8
0
 10
-62.899902
 20
5.349991
 11
-62.899902
 21
-8.050003
  0
LINE
  8
0
 10
-62.899902
 20
-5.649994
 11
-48.899902
 21
-5.649994
  0
LINE
  8
0
 10
-62.899902
 20
-8.050003
 11
-48.899902
 21
-8.050003
  0
LINE
  8
0
 10
36.600098
 20
-5.649994
 11
46.600098
 21
-5.649994
  0
LINE
  8
0
 10
36.600098
 20
-8.050003
 11
46.600098
 21
-8.050003
  0
LINE
  8
0
  6
CENTER
 62
     2
 10
45.100098
 20
2.681366
 11
45.100098
 21
-2.177048
  0
LINE
  8
0
  6
CENTER
 62
     2
 10
38.100098
 20
2.681366
 11
38.100098
 21
-2.117065
  0
LINE
  8
0
  6
CENTER
 62
     2
 10
42.864609
 20
0.349991
 11
47.183197
 21
0.349991
  0
LINE
  8
0
 10
-49.899902
 20
0.906769
 11
-48.899902
 21
0.906769
  0
LINE
  8
0
 10
-49.899902
 20
-0.206787
 11
-48.899902
 21
-0.206787
  0
LINE
  8
0
 10
-49.899902
 20
0.906769
 11
-49.899902
 21
-0.206787
  0
LINE
  8
0
  6
CENTER
 62
     2
 10
35.960800
 20
0.349991
 11
40.405411
 21
0.349991
  0
LINE
  8
0
  6
CENTER
 62
     2
 10
38.300110
 20
-6.718826
 11
38.300110
 21
-8.665741
  0
LINE
  8
0
 10
36.600098
 20
-7.250000
 11
40.100098
 21
-7.250000
  0
LINE
  8
0
 10
40.100098
 20
-7.250000
 11
40.100098
 21
-8.050003
  0
LINE
  8
0
  6
CENTER
 62
     2
 10
-50.499893
 20
-6.666138
 11
-50.499893
 21
-8.691223
  0
LINE
  8
0
 10
-52.299896
 20
-7.250000
 11
-48.899902
 21
-7.250000
  0
LINE
  8
0
 10
-52.299896
 20
-7.250000
 11
-52.299896
 21
-8.050003
  0
LINE
  8
0
  6
CENTER
 62
     1
 10
-49.299896
 20
3.050003
 11
-41.553192
 21
3.050003
  0
LINE
  8
0
  6
CENTER
 62
     2
 10
39.100098
 20
-2.250000
 11
44.100098
 21
-2.250000
  0
LINE
  8
0
 10
-62.899902
 20
5.349991
 11
-48.899902
 21
5.349991
  0
LINE
  8
0
 62
     4
 10
-48.899902
 20
25.349991
 11
-48.899902
 21
5.349991
  0
LINE
  8
0
 62
     4
 10
-48.899902
 20
8.349991
 11
-48.899902
 21
7.349991
  0
LINE
  8
0
 62
     4
 10
-62.899902
 20
25.349991
 11
-62.899902
 21
5.349991
  0
LINE
  8
0
 62
     4
 10
-49.399902
 20
25.849991
 11
-59.734222
 21
25.849991
  0
LINE
  8
0
 62
     4
 10
-62.899902
 20
24.849991
 11
-48.899902
 21
24.849991
  0
LINE
  8
0
 62
     4
 10
-59.199905
 20
25.649994
 11
-62.799911
 21
25.649994
  0
LINE
  8
0
 62
     4
 10
-59.199905
 20
25.849991
 11
-59.199905
 21
25.649994
  0
LINE
  8
0
 62
     4
 10
-60.299911
 20
26.250000
 11
-62.099899
 21
26.250000
  0
LINE
  8
0
 62
     4
 10
-51.499908
 20
26.250000
 11
-49.699905
 21
26.250000
  0
LINE
  8
0
 62
     4
 10
46.600098
 20
25.349991
 11
46.600098
 21
5.349991
  0
LINE
  8
0
 62
     4
 10
36.600098
 20
25.349991
 11
36.600098
 21
5.349991
  0
LINE
  8
0
 62
     4
 10
36.600098
 20
24.849991
 11
46.600098
 21
24.849991
  0
LINE
  8
0
 62
     4
 10
37.100098
 20
25.849991
 11
43.438370
 21
25.849991
  0
LINE
  8
0
 10
36.600098
 20
5.349991
 11
46.600098
 21
5.349991
  0
LINE
  8
0
 62
     4
 10
44.004059
 20
26.250000
 11
45.804062
 21
26.250000
  0
LINE
  8
0
 62
     4
 10
42.904068
 20
25.649994
 11
46.504059
 21
25.649994
  0
LINE
  8
0
 62
     4
 10
42.904068
 20
25.849991
 11
42.904068
 21
25.649994
  0
LINE
  8
0
 62
     4
 10
39.196136
 20
26.250000
 11
37.396133
 21
26.250000
  0
LINE
  8
0
 62
     4
 10
-48.899902
 20
5.349991
 11
-45.899902
 21
5.349991
  0
LINE
  8
0
 62
     4
 10
-45.899879
 20
5.350022
 11
-43.588573
 21
6.427803
  0
LINE
  8
0
  6
CENTER
 62
     1
 10
-43.974564
 20
20.349991
 11
-22.899902
 21
20.349991
  0
LINE
  8
0
 62
     4
 10
-43.299911
 20
23.349991
 11
-43.299911
 21
6.880920
  0
LINE
  8
0
 62
     4
 10
-43.799911
 20
23.849991
 11
-48.899902
 21
23.849991
  0
LINE
  8
0
 62
     4
 10
-45.899902
 20
5.349991
 11
-45.899902
 21
23.849991
  0
LINE
  8
0
 62
     4
 10
-42.299896
 20
19.699997
 11
-38.791687
 21
19.699997
  0
LINE
  8
0
 62
     4
 10
-42.299896
 20
20.999985
 11
-38.443359
 21
20.999985
  0
LINE
  8
0
 62
     4
 10
-37.408081
 20
20.999985
 11
-34.099884
 21
20.999985
  0
LINE
  8
0
 62
     4
 10
-37.756409
 20
19.699997
 11
-34.099884
 21
19.699997
  0
LINE
  8
0
 62
     4
 10
-34.099884
 20
20.099991
 11
-30.099884
 21
20.099991
  0
LINE
  8
0
 62
     4
 10
-34.099884
 20
20.599991
 11
-30.099884
 21
20.599991
  0
LINE
  8
0
 62
     4
 10
-34.099884
 20
20.999985
 11
-34.099884
 21
19.699997
  0
LINE
  8
0
 62
     4
 10
-30.099884
 20
20.599991
 11
-30.099884
 21
20.099991
  0
LINE
  8
0
  6
PHANTOM
 62
     1
 10
-39.046219
 20
18.749981
 11
-38.188778
 21
21.949993
  0
LINE
  8
0
  6
PHANTOM
 62
     1
 10
-38.010941
 20
18.749990
 11
-37.153503
 21
21.949989
  0
LINE
  8
0
 62
     4
 10
-42.299896
 20
18.849991
 11
-43.299896
 21
18.849991
  0
LINE
  8
0
 62
     4
 10
-42.299896
 20
21.849991
 11
-43.299896
 21
21.849991
  0
LINE
  8
0
 62
     4
 10
-42.299896
 20
21.849991
 11
-42.299896
 21
18.849991
  0
LINE
  8
0
 62
     4
 10
37.100113
 20
23.849991
 11
46.100113
 21
23.849991
  0
LINE
  8
0
 62
     4
 10
46.370102
 20
23.349991
 11
46.370102
 21
7.062393
  0
LINE
  8
0
 62
     4
 10
36.830093
 20
23.349991
 11
36.830093
 21
7.062393
  0
LINE
  8
0
 62
     4
 10
37.330109
 20
6.562393
 11
45.870117
 21
6.562393
  0
LINE
  8
0
 62
     4
 10
40.350098
 20
18.849991
 11
42.850098
 21
18.849991
  0
LINE
  8
0
 62
     4
 10
40.350098
 20
21.849991
 11
42.850098
 21
21.849991
  0
ARC
  8
0
 62
     4
 10
41.600098
 20
3.050003
 40
1.300001
 50
13.342345
 51
166.657608
  0
ARC
  8
0
 62
     4
 10
41.600098
 20
3.050003
 40
1.300001
 50
193.342392
 51
346.657654
  0
CIRCLE
  8
0
 62
     4
 10
41.600098
 20
3.050003
 40
0.950000
  0
CIRCLE
  8
0
 62
     4
 10
41.600098
 20
3.050003
 40
2.250000
  0
CIRCLE
  8
0
 10
38.100098
 20
0.349991
 40
1.049999
  0
CIRCLE
  8
0
 10
45.100098
 20
0.349991
 40
1.049999
  0
ARC
  8
0
 10
45.100098
 20
0.349991
 40
1.600000
 50
20.364132
 51
339.635864
  0
ARC
  8
0
 10
38.100098
 20
0.349991
 40
1.600000
 50
200.364151
 51
159.635849
  0
ARC
  8
0
 10
-51.466568
 20
-7.179169
 40
0.533332
 50
187.632523
 51
253.808868
  0
ARC
  8
0
 10
-50.499893
 20
-3.850006
 40
3.999999
 50
253.808731
 51
286.191345
  0
ARC
  8
0
 10
-49.533234
 20
-7.179169
 40
0.533333
 50
286.191132
 51
352.367493
  0
ARC
  8
0
 10
37.333435
 20
-7.179169
 40
0.533332
 50
187.632523
 51
253.808868
  0
ARC
  8
0
 10
38.300110
 20
-3.850006
 40
3.999999
 50
253.808731
 51
286.191345
  0
ARC
  8
0
 10
39.266769
 20
-7.179169
 40
0.533333
 50
286.191132
 51
352.367493
  0
CIRCLE
  8
0
 10
41.600098
 20
-2.250000
 40
1.229500
  0
CIRCLE
  8
0
 62
     2
 10
41.600098
 20
-2.250000
 40
1.500000
  0
ARC
  8
0
 62
     4
 10
-51.499893
 20
25.649994
 40
0.600000
 50
90.000000
 51
160.528702
  0
ARC
  8
0
 62
     4
 10
-49.399902
 20
25.349991
 40
0.500000
 50
0.000000
 51
90.000000
  0
ARC
  8
0
 62
     4
 10
-62.399902
 20
25.349991
 40
0.500000
 50
125.503250
 51
180.000000
  0
ARC
  8
0
 62
     4
 10
-62.099899
 20
25.649994
 40
0.600000
 50
90.000000
 51
180.000000
  0
ARC
  8
0
 62
     4
 10
-60.299896
 20
25.649994
 40
0.599998
 50
0.000000
 51
90.000000
  0
ARC
  8
0
 62
     4
 10
-49.699905
 20
25.649994
 40
0.599999
 50
10.276630
 51
90.000000
  0
ARC
  8
0
 62
     4
 10
37.100098
 20
25.349991
 40
0.500000
 50
90.000000
 51
180.000000
  0
ARC
  8
0
 62
     4
 10
46.100098
 20
25.349991
 40
0.500000
 50
0.000000
 51
53.853489
  0
ARC
  8
0
 62
     4
 10
45.804077
 20
25.649994
 40
0.599998
 50
0.000000
 51
90.000000
  0
ARC
  8
0
 62
     4
 10
44.004059
 20
25.649994
 40
0.600000
 50
90.000000
 51
180.000000
  0
ARC
  8
0
 62
     4
 10
39.196136
 20
25.649994
 40
0.600000
 50
19.471294
 51
90.000000
  0
ARC
  8
0
 62
     4
 10
37.396149
 20
25.649994
 40
0.600000
 50
90.000000
 51
170.041992
  0
ARC
  8
0
 62
     4
 10
-43.799911
 20
23.349991
 40
0.500000
 50
0.000000
 51
90.000000
  0
ARC
  8
0
 62
     4
 10
-43.799911
 20
6.880920
 40
0.499999
 50
294.999817
 51
0.000000
  0
ARC
  8
0
 62
     4
 10
37.330093
 20
7.062393
 40
0.500000
 50
179.999939
 51
270.000000
  0
ARC
  8
0
 62
     4
 10
45.870102
 20
7.062393
 40
0.500000
 50
270.000000
 51
0.000000
  0
ARC
  8
0
 62
     4
 10
45.870102
 20
23.349991
 40
0.500000
 50
0.000000
 51
90.000000
  0
ARC
  8
0
 62
     4
 10
37.330093
 20
23.349991
 40
0.500000
 50
90.000000
 51
180.000000
  0
ARC
  8
0
 62
     4
 10
37.100098
 20
23.349991
 40
0.500000
 50
90.000000
 51
180.000000
  0
ARC
  8
0
 62
     4
 10
46.100098
 20
23.349991
 40
0.500000
 50
0.000000
 51
90.000000
  0
ARC
  8
0
 62
     4
 10
40.350098
 20
20.349991
 40
1.500000
 50
90.000000
 51
270.000000
  0
ARC
  8
0
 62
     4
 10
42.850098
 20
20.349991
 40
1.500000
 50
270.000000
 51
90.000000
  0
CIRCLE
  8
0
 62
     4
 10
42.850098
 20
20.349991
 40
0.650000
  0
CIRCLE
  8
0
 62
     4
 10
40.350098
 20
20.349991
 40
0.650000
  0
TEXT
  8
0
 10
-117.199974
 20
85.620003
 40
3.199995
  1
ROCK SW
 50
0.000000
 41
1.052632
 51
0.000000
  7
STANDARD
  0
TEXT
  8
0
 10
76.207352
 20
-92.850006
 40
4.500000
  1
KOGANEI CORP.
 50
0.000000
 41
1.052632
 51
0.000000
  7
STANDARD
  0
TEXT
  8
0
 10
92.842865
 20
87.620003
 40
3.200000
  1
Ver. 2.0
 50
0.000000
 41
1.052632
 51
0.000000
  7
STANDARD
  0
TEXT
  8
0
 10
-122.107132
 20
89.620003
 40
3.200000
  1
010 SERIES
 50
0.000000
 41
1.052632
 51
0.000000
  7
STANDARD
  0
TEXT
  8
0
 10
-130.207001
 20
72.620003
 40
3.200000
  1
MODEL:010E1-83
 50
0.000000
 41
1.052632
 51
0.000000
  7
STANDARD
  0
ENDSEC
  0
EOF
