  0
SECTION
  2
HEADER
  0
ENDSEC
  0
SECTION
  2
TABLES
  0
TABLE
  2
LTYPE
 70
     4
  0
LTYPE
  2
CONTINUOUS
 70
    64
  3
Solid line
 72
    65
 73
     0
 40
0.000000
  0
LTYPE
  2
DASHED
 70
    64
  3
__ __ __ __ __ __ __ __ __ __ __ __ __ __ __
 72
    65
 73
     2
 40
3.500000
 49
2.000000
 49
-1.500000
  0
LTYPE
  2
CENTER
 70
    64
  3
____ _ ____ _ ____ _ ____ _ ____ _ ____ _ ____
 72
    65
 73
     4
 40
17.500000
 49
13.000000
 49
-1.500000
 49
1.500000
 49
-1.500000
  0
LTYPE
  2
PHANTOM
 70
    64
  3
_____ _ _ _____ _ _ _____ _ _ _____ _ _ ____  
 72
    65
 73
     6
 40
15.500000
 49
8.000000
 49
-1.500000
 49
1.500000
 49
-1.500000
 49
1.500000
 49
-1.500000
  0
LTYPE
  2
DASHED1
 70
    64
  3
__ __ __ __ __ __ __ __ __ __ __ __ __ __ __
 72
    65
 73
     2
 40
1.500000
 49
1.000000
 49
-0.500000
  0
LTYPE
  2
DASHED2
 70
    64
  3
__ __ __ __ __ __ __ __ __ __ __ __ __ __ __
 72
    65
 73
     2
 40
3.500000
 49
2.500000
 49
-1.000000
  0
LTYPE
  2
DASHED3
 70
    64
  3
__ __ __ __ __ __ __ __ __ __ __ __ __ __ __
 72
    65
 73
     2
 40
6.000000
 49
4.000000
 49
-2.000000
  0
LTYPE
  2
DASHED4
 70
    64
  3
__ __ __ __ __ __ __ __ __ __ __ __ __ __ __
 72
    65
 73
     2
 40
12.000000
 49
10.000000
 49
-2.000000
  0
LTYPE
  2
DASHED5
 70
    64
  3
__ __ __ __ __ __ __ __ __ __ __ __ __ __ __
 72
    65
 73
     2
 40
17.000000
 49
15.000000
 49
-2.000000
  0
LTYPE
  2
DASHED6
 70
    64
  3
__ __ __ __ __ __ __ __ __ __ __ __ __ __ __
 72
    65
 73
     2
 40
29.000000
 49
27.000000
 49
-2.000000
  0
LTYPE
  2
PHANTOM1
 70
    64
  3
_____ _ _ _____ _ _ _____ _ _ _____ _ _ ____  
 72
    65
 73
     6
 40
31.000000
 49
25.000000
 49
-1.500000
 49
1.000000
 49
-1.000000
 49
1.000000
 49
-1.500000
  0
LTYPE
  2
PHANTOM2
 70
    64
  3
_____ _ _ _____ _ _ _____ _ _ _____ _ _ ____  
 72
    65
 73
     6
 40
36.000000
 49
27.000000
 49
-1.500000
 49
2.500000
 49
-1.000000
 49
2.500000
 49
-1.500000
  0
LTYPE
  2
PHANTOM3
 70
    64
  3
_____ _ _ _____ _ _ _____ _ _ _____ _ _ ____  
 72
    65
 73
     6
 40
78.000000
 49
64.000000
 49
-2.000000
 49
4.000000
 49
-2.000000
 49
4.000000
 49
-2.000000
  0
LTYPE
  2
CENTER1
 70
    64
  3
____ _ ____ _ ____ _ ____ _ ____ _ ____ _ ____
 72
    65
 73
     4
 40
19.000000
 49
14.000000
 49
-1.000000
 49
3.000000
 49
-1.000000
  0
LTYPE
  2
CENTER2
 70
    64
  3
____ _ ____ _ ____ _ ____ _ ____ _ ____ _ ____
 72
    65
 73
     4
 40
28.500000
 49
25.000000
 49
-1.000000
 49
1.500000
 49
-1.000000
  0
LTYPE
  2
CENTER3
 70
    64
  3
____ _ ____ _ ____ _ ____ _ ____ _ ____ _ ____
 72
    65
 73
     4
 40
31.500000
 49
27.000000
 49
-1.000000
 49
2.500000
 49
-1.000000
  0
LTYPE
  2
CENTER4
 70
    64
  3
____ _ ____ _ ____ _ ____ _ ____ _ ____ _ ____
 72
    65
 73
     4
 40
50.000000
 49
45.000000
 49
-1.000000
 49
3.000000
 49
-1.000000
  0
LTYPE
  2
CENTER5
 70
    64
  3
____ _ ____ _ ____ _ ____ _ ____ _ ____ _ ____
 72
    65
 73
     4
 40
100.000000
 49
92.000000
 49
-2.000000
 49
4.000000
 49
-2.000000
  0
LTYPE
  2
SBK1
 70
    64
  3
______ _ _ _ ______ _ _ _ ______ _ _ _ _____  
 72
    65
 73
     8
 40
60.500000
 49
45.000000
 49
-2.000000
 49
2.500000
 49
-2.000000
 49
2.500000
 49
-2.000000
 49
2.500000
 49
-2.000000
  0
LTYPE
  2
SBK2
 70
    64
  3
______ _ _ _ ______ _ _ _ ______ _ _ _ _____  
 72
    65
 73
     8
 40
84.000000
 49
64.000000
 49
-2.000000
 49
4.000000
 49
-2.000000
 49
4.000000
 49
-2.000000
 49
4.000000
 49
-2.000000
  0
LTYPE
  2
STCH
 70
    64
  3
__ __ __ __ __ __ __ __ __ __ __ __ __ __ __
 72
    65
 73
     2
 40
3.000000
 49
1.000000
 49
-2.000000
  0
LTYPE
  2
MTCH
 70
    64
  3
_____ _ _ _____ _ _ _____ _ _ _____ _ _ ____  
 72
    65
 73
     6
 40
80.000000
 49
66.000000
 49
-2.000000
 49
4.000000
 49
-2.000000
 49
4.000000
 49
-2.000000
  0
ENDTAB
  0
TABLE
  2
LAYER
 70
     1
  0
LAYER
  2
0
 70
     0
 62
     7
  6
CONTINUOUS
  0
ENDTAB
  0
TABLE
  2
STYLE
 70
     1
  0
STYLE
  2
STANDARD
 70
     0
 40
0.000000
 41
1.000000
 50
0.000000
 71
     0
 42
0.200000
  3
txt
  4
BIGFONT
  0
ENDTAB
  0
TABLE
  2
VIEW
 70
     0
  0
ENDTAB
  0
ENDSEC
  0
SECTION
  2
BLOCKS
  0
ENDSEC
  0
SECTION
  2
ENTITIES
  0
LINE
  8
0
 10
118.499969
 20
-3.166672
 11
118.499969
 21
-26.166672
  0
LINE
  8
0
 10
128.499969
 20
-3.166672
 11
128.499969
 21
-26.166672
  0
LINE
  8
0
 10
128.499969
 20
-23.166672
 11
118.499969
 21
-23.166672
  0
LINE
  8
0
  6
CENTER
 62
     2
 10
123.499969
 20
19.928482
 11
123.499969
 21
-28.526230
  0
LINE
  8
0
  6
CENTER
 62
     2
 10
128.499969
 20
-8.166672
 11
125.499969
 21
-8.166672
  0
LINE
  8
0
  6
CENTER
 62
     2
 10
121.499969
 20
-8.166672
 11
118.499969
 21
-8.166672
  0
LINE
  8
0
  6
CENTER
 62
     2
 10
122.499969
 20
-11.466675
 11
120.499969
 21
-11.466675
  0
LINE
  8
0
  6
CENTER
 62
     2
 10
122.499969
 20
-16.166672
 11
120.499969
 21
-16.166672
  0
LINE
  8
0
  6
CENTER
 62
     2
 10
121.499969
 20
-10.466675
 11
121.499969
 21
-12.466675
  0
LINE
  8
0
  6
CENTER
 62
     2
 10
121.499969
 20
-15.166672
 11
121.499969
 21
-17.166672
  0
LINE
  8
0
  6
CENTER
 62
     2
 10
126.999969
 20
-6.666672
 11
126.999969
 21
-9.666672
  0
LINE
  8
0
  6
CENTER
 62
     2
 10
119.999969
 20
-6.666672
 11
119.999969
 21
-9.666672
  0
LINE
  8
0
 62
     4
 10
128.549973
 20
15.933334
 11
128.499969
 21
15.933334
  0
LINE
  8
0
 10
128.499969
 20
-3.166672
 11
118.499969
 21
-3.166672
  0
LINE
  8
0
 62
     4
 10
118.499969
 20
16.833328
 11
118.499969
 21
-3.166672
  0
LINE
  8
0
 62
     4
 10
128.499969
 20
16.833328
 11
128.499969
 21
-3.166672
  0
LINE
  8
0
 62
     4
 10
128.499969
 20
16.333328
 11
118.499969
 21
16.333328
  0
LINE
  8
0
 62
     4
 10
127.999969
 20
17.333328
 11
121.661697
 21
17.333328
  0
LINE
  8
0
 62
     4
 10
121.096008
 20
17.733337
 11
119.296005
 21
17.733337
  0
LINE
  8
0
 62
     4
 10
122.196014
 20
17.133331
 11
118.596008
 21
17.133331
  0
LINE
  8
0
 62
     4
 10
122.196014
 20
17.333328
 11
122.196014
 21
17.133331
  0
LINE
  8
0
 62
     4
 10
125.903931
 20
17.733337
 11
127.703934
 21
17.733337
  0
LINE
  8
0
  6
CENTER
 62
     1
 10
120.196014
 20
18.483994
 11
120.196014
 21
15.963623
  0
LINE
  8
0
  6
CENTER
 62
     1
 10
126.803940
 20
18.483994
 11
126.803940
 21
15.849060
  0
LINE
  8
0
  6
CENTER
 62
     1
 10
126.799973
 20
-24.690628
 11
126.799973
 21
-29.358078
  0
LINE
  8
0
 10
128.499969
 20
-25.366669
 11
124.999969
 21
-25.366669
  0
LINE
  8
0
 10
124.999969
 20
-25.366669
 11
124.999969
 21
-26.166672
  0
LINE
  8
0
  6
DASHED
 62
     4
 10
128.799973
 20
-27.366669
 11
118.199982
 21
-27.366669
  0
LINE
  8
0
  6
DASHED
 62
     4
 10
128.999969
 20
-29.766678
 11
128.999969
 21
-27.566681
  0
LINE
  8
0
  6
DASHED
 62
     4
 10
117.999969
 20
-29.766678
 11
117.999969
 21
-27.566666
  0
LINE
  8
0
  6
DASHED
 62
     4
 10
109.499969
 20
-31.166672
 11
109.499969
 21
-29.966675
  0
LINE
  8
0
  6
DASHED
 62
     4
 10
116.799973
 20
-29.766678
 11
116.799973
 21
-27.566666
  0
LINE
  8
0
  6
DASHED
 62
     4
 10
130.199982
 20
-29.766678
 11
130.199982
 21
-27.566666
  0
LINE
  8
0
  6
DASHED
 62
     4
 10
137.499969
 20
-31.166672
 11
130.399979
 21
-31.166672
  0
LINE
  8
0
  6
DASHED
 62
     4
 10
137.499985
 20
-29.966675
 11
130.399979
 21
-29.966675
  0
LINE
  8
0
  6
DASHED
 62
     4
 10
116.599976
 20
-29.966675
 11
109.499969
 21
-29.966675
  0
LINE
  8
0
  6
DASHED
 62
     4
 10
116.599976
 20
-31.166672
 11
109.499969
 21
-31.166672
  0
LINE
  8
0
  6
CENTER
 62
     1
 10
134.499985
 20
-32.045700
 11
134.499985
 21
-29.145111
  0
LINE
  8
0
  6
CENTER
 62
     1
 10
112.499969
 20
-32.424026
 11
112.499969
 21
-29.271210
  0
LINE
  8
0
  6
DASHED
 62
     4
 10
128.530746
 20
-28.337540
 11
128.530746
 21
-27.366684
  0
LINE
  8
0
  6
DASHED
 62
     4
 10
125.069199
 20
-28.337540
 11
125.069199
 21
-27.366669
  0
LINE
  8
0
  6
DASHED
 62
     4
 10
121.930740
 20
-28.337555
 11
121.930740
 21
-27.366669
  0
LINE
  8
0
  6
DASHED
 62
     4
 10
118.469208
 20
-28.337540
 11
118.469208
 21
-27.366669
  0
LINE
  8
0
  6
DASHED
 62
     4
 10
137.499985
 20
-31.166687
 11
137.499985
 21
-29.966675
  0
LINE
  8
0
 10
125.799973
 20
-25.366669
 11
125.799973
 21
-26.166672
  0
LINE
  8
0
 10
127.799973
 20
-25.366669
 11
127.799973
 21
-26.166672
  0
LINE
  8
0
 10
126.199982
 20
-25.366669
 11
126.199982
 21
-26.166672
  0
LINE
  8
0
 10
127.399979
 20
-25.366669
 11
127.399979
 21
-26.166672
  0
LINE
  8
0
  6
CENTER
 62
     1
 10
120.199966
 20
-24.690628
 11
120.199966
 21
-29.358078
  0
LINE
  8
0
  6
CENTER
 10
125.499969
 20
-6.666672
 11
120.499969
 21
-6.666672
  0
LINE
  8
0
  6
CENTER
 10
122.999969
 20
-4.166672
 11
122.999969
 21
-9.166672
  0
LINE
  8
0
  6
DASHED
 62
     4
 10
118.199982
 20
-26.166656
 11
128.799988
 21
-26.166656
  0
LINE
  8
0
 10
118.499969
 20
-26.166656
 11
128.499969
 21
-26.166656
  0
LINE
  8
0
 62
     4
 10
-31.583344
 20
-63.766678
 11
-31.583344
 21
-64.566681
  0
LINE
  8
0
 62
     4
 10
-37.083344
 20
-63.766678
 11
-37.083344
 21
-64.566681
  0
LINE
  8
0
 62
     4
 10
-36.883343
 20
-63.566681
 11
-31.783340
 21
-63.566681
  0
LINE
  8
0
 62
     4
 10
-36.333344
 20
-69.066681
 11
-36.333344
 21
-70.166672
  0
LINE
  8
0
 62
     4
 10
-34.333344
 20
-69.245300
 11
-34.333344
 21
-70.166672
  0
LINE
  8
0
 62
     4
 10
-32.333344
 20
-69.066681
 11
-36.333344
 21
-69.066681
  0
LINE
  8
0
 62
     4
 10
-32.333344
 20
-69.066681
 11
-32.333344
 21
-70.166672
  0
LINE
  8
0
 62
     4
 10
-33.433350
 20
-68.666672
 11
-33.433350
 21
-69.066681
  0
LINE
  8
0
 62
     4
 10
-35.233353
 20
-68.666672
 11
-35.233353
 21
-69.066681
  0
LINE
  8
0
 62
     4
 10
-35.233353
 20
-68.666672
 11
-33.433350
 21
-68.666672
  0
LINE
  8
0
  6
PHANTOM
 62
     1
 10
-31.433346
 20
-60.225368
 11
-37.233345
 21
-58.671265
  0
LINE
  8
0
  6
PHANTOM
 62
     1
 10
-31.433348
 20
-59.190067
 11
-37.233349
 21
-57.635963
  0
LINE
  8
0
  6
CENTER
 62
     2
 10
-40.133347
 20
-71.866669
 11
-35.133347
 21
-71.866669
  0
LINE
  8
0
  6
CENTER
 62
     2
 10
-33.533356
 20
-82.466675
 11
-28.533356
 21
-82.466675
  0
LINE
  8
0
  6
CENTER
 62
     2
 10
-37.633347
 20
-74.366669
 11
-37.633347
 21
-69.366669
  0
LINE
  8
0
  6
CENTER
 62
     2
 10
-31.033356
 20
-84.966675
 11
-31.033356
 21
-79.966675
  0
LINE
  8
0
 62
     4
 10
-39.333344
 20
-67.166672
 11
-39.333344
 21
-70.166672
  0
LINE
  8
0
 62
     4
 10
-36.233345
 20
-58.939194
 11
-36.233345
 21
-63.566681
  0
LINE
  8
0
 62
     4
 10
-34.933350
 20
-59.287537
 11
-34.933350
 21
-63.566681
  0
LINE
  8
0
 62
     4
 10
-33.733353
 20
-59.609070
 11
-33.733353
 21
-63.566681
  0
LINE
  8
0
 62
     4
 10
-32.433350
 20
-59.957413
 11
-32.433350
 21
-63.566681
  0
LINE
  8
0
 62
     4
 10
-33.733337
 20
-55.566681
 11
-32.433350
 21
-55.566681
  0
LINE
  8
0
 62
     4
 10
-36.233337
 20
-55.566681
 11
-34.933350
 21
-55.566681
  0
LINE
  8
0
 62
     4
 10
-33.333344
 20
-52.066681
 11
-33.333344
 21
-55.566681
  0
LINE
  8
0
 62
     4
 10
-32.833344
 20
-52.066681
 11
-32.833344
 21
-55.566681
  0
LINE
  8
0
 62
     4
 10
-35.833344
 20
-52.066681
 11
-35.833344
 21
-55.566681
  0
LINE
  8
0
 62
     4
 10
-35.333344
 20
-52.066681
 11
-35.333344
 21
-55.566681
  0
LINE
  8
0
 62
     4
 10
-36.233345
 20
-55.566681
 11
-36.233345
 21
-57.903931
  0
LINE
  8
0
 62
     4
 10
-34.933350
 20
-55.566681
 11
-34.933350
 21
-58.252258
  0
LINE
  8
0
 62
     4
 10
-32.433350
 20
-55.566681
 11
-32.433350
 21
-58.922134
  0
LINE
  8
0
 62
     4
 10
-33.733353
 20
-55.566681
 11
-33.733353
 21
-58.573792
  0
LINE
  8
0
  6
CENTER
 62
     1
 10
-35.583344
 20
-50.863266
 11
-35.583344
 21
-65.264069
  0
LINE
  8
0
  6
CENTER
 62
     1
 10
-33.083344
 20
-50.795441
 11
-33.083344
 21
-65.264069
  0
LINE
  8
0
 10
-39.333344
 20
-84.166672
 11
-31.358170
 21
-84.166672
  0
LINE
  8
0
 62
     4
 10
-39.333344
 20
-67.166695
 11
-39.145802
 21
-65.023109
  0
LINE
  8
0
 62
     4
 10
-29.333300
 20
-67.166687
 11
-29.520838
 21
-65.023109
  0
LINE
  8
0
 62
     4
 10
-39.333344
 20
-67.166672
 11
-29.333344
 21
-67.166672
  0
LINE
  8
0
  6
CENTER
 62
     2
 10
-34.333344
 20
-62.344330
 11
-34.333344
 21
-86.087570
  0
LINE
  8
0
 10
-39.333344
 20
-70.166672
 11
-37.958160
 21
-70.166672
  0
LINE
  8
0
 62
     4
 10
-38.647705
 20
-64.566681
 11
-30.018982
 21
-64.566681
  0
LINE
  8
0
 10
-31.740454
 20
-83.173767
 11
-30.326256
 21
-81.759575
  0
LINE
  8
0
 10
-31.740454
 20
-81.759567
 11
-30.326254
 21
-83.173775
  0
LINE
  8
0
 10
-38.340446
 20
-72.573769
 11
-36.926247
 21
-71.159569
  0
LINE
  8
0
 10
-38.340443
 20
-71.159561
 11
-36.926243
 21
-72.573761
  0
LINE
  8
0
 62
     4
 10
-29.333345
 20
-67.166672
 11
-29.333345
 21
-70.166672
  0
LINE
  8
0
 10
-39.333344
 20
-73.666672
 11
-37.633347
 21
-73.666672
  0
LINE
  8
0
 10
-35.833347
 20
-71.866669
 11
-35.833347
 21
-70.166672
  0
LINE
  8
0
 10
-37.308533
 20
-70.166672
 11
-29.333345
 21
-70.166672
  0
LINE
  8
0
 10
-39.333344
 20
-72.191490
 11
-39.333344
 21
-84.166672
  0
LINE
  8
0
 10
-32.833355
 20
-84.166672
 11
-32.833355
 21
-82.466675
  0
LINE
  8
0
 10
-31.033356
 20
-80.666672
 11
-29.333345
 21
-80.666672
  0
LINE
  8
0
 10
-29.333345
 20
-70.166672
 11
-29.333345
 21
-82.141937
  0
LINE
  8
0
 10
-39.333344
 20
-70.166672
 11
-39.333344
 21
-71.541847
  0
LINE
  8
0
 10
-29.333345
 20
-82.791420
 11
-29.333345
 21
-84.166672
  0
LINE
  8
0
 10
-30.708544
 20
-84.166672
 11
-29.333345
 21
-84.166672
  0
LINE
  8
0
 62
     4
 10
-30.326241
 20
59.826225
 11
-31.740438
 21
61.240421
  0
LINE
  8
0
 62
     4
 10
-30.326242
 20
61.240425
 11
-31.740442
 21
59.826225
  0
LINE
  8
0
 62
     4
 10
-36.926228
 20
70.426231
 11
-38.340431
 21
71.840431
  0
LINE
  8
0
 62
     4
 10
-36.926231
 20
71.840431
 11
-38.340431
 21
70.426231
  0
LINE
  8
0
 62
     4
 10
-29.333344
 20
55.833328
 11
-29.333344
 21
60.208511
  0
LINE
  8
0
 62
     4
 10
-38.647705
 20
53.233337
 11
-30.018982
 21
53.233337
  0
LINE
  8
0
  6
DASHED
 62
     4
 10
-45.333344
 20
58.833328
 11
-39.333344
 21
58.833328
  0
LINE
  8
0
  6
CENTER
 62
     1
 10
-34.333344
 20
51.010986
 11
-34.333344
 21
74.754227
  0
LINE
  8
0
 62
     4
 10
-39.333344
 20
55.833328
 11
-29.333344
 21
55.833328
  0
LINE
  8
0
 62
     4
 10
-29.333300
 20
55.833344
 11
-29.520838
 21
53.689766
  0
LINE
  8
0
 62
     4
 10
-39.333344
 20
55.833355
 11
-39.145802
 21
53.689758
  0
LINE
  8
0
 62
     4
 10
-39.333344
 20
72.833328
 11
-37.958145
 21
72.833328
  0
LINE
  8
0
  6
CENTER
 62
     1
 10
-33.083344
 20
39.462097
 11
-33.083344
 21
53.930725
  0
LINE
  8
0
  6
CENTER
 62
     1
 10
-35.583344
 20
39.529922
 11
-35.583344
 21
53.930725
  0
LINE
  8
0
 62
     4
 10
-33.733353
 20
44.233337
 11
-33.733353
 21
47.240448
  0
LINE
  8
0
 62
     4
 10
-32.433350
 20
44.233337
 11
-32.433350
 21
47.588791
  0
LINE
  8
0
 62
     4
 10
-34.933350
 20
44.233337
 11
-34.933350
 21
46.918915
  0
LINE
  8
0
 62
     4
 10
-36.233345
 20
44.233337
 11
-36.233345
 21
46.570587
  0
LINE
  8
0
 62
     4
 10
-35.333344
 20
40.733337
 11
-35.333344
 21
44.233337
  0
LINE
  8
0
 62
     4
 10
-35.833344
 20
40.733337
 11
-35.833344
 21
44.233337
  0
LINE
  8
0
 62
     4
 10
-32.833344
 20
40.733337
 11
-32.833344
 21
44.233337
  0
LINE
  8
0
 62
     4
 10
-33.333344
 20
40.733337
 11
-33.333344
 21
44.233337
  0
LINE
  8
0
 62
     4
 10
-36.233337
 20
44.233337
 11
-34.933350
 21
44.233337
  0
LINE
  8
0
 62
     4
 10
-35.833336
 20
40.733337
 11
-35.333344
 21
40.733337
  0
LINE
  8
0
 62
     4
 10
-33.333344
 20
40.733337
 11
-32.833344
 21
40.733337
  0
LINE
  8
0
 62
     4
 10
-33.733337
 20
44.233337
 11
-32.433350
 21
44.233337
  0
LINE
  8
0
 62
     4
 10
-32.433350
 20
48.624069
 11
-32.433350
 21
52.233337
  0
LINE
  8
0
 62
     4
 10
-33.733353
 20
48.275726
 11
-33.733353
 21
52.233337
  0
LINE
  8
0
 62
     4
 10
-34.933350
 20
47.954193
 11
-34.933350
 21
52.233337
  0
LINE
  8
0
 62
     4
 10
-36.233345
 20
47.605850
 11
-36.233345
 21
52.233337
  0
LINE
  8
0
  6
DASHED
 62
     4
 10
-48.333347
 20
69.833328
 11
-48.333347
 21
61.833328
  0
LINE
  8
0
  6
DASHED
 62
     4
 10
-20.333344
 20
69.833344
 11
-20.333344
 21
61.833328
  0
LINE
  8
0
  6
DASHED
 62
     4
 10
-48.333351
 20
69.833359
 11
-45.333363
 21
72.833344
  0
LINE
  8
0
  6
DASHED
 62
     4
 10
-23.333359
 20
72.833321
 11
-20.333368
 21
69.833336
  0
LINE
  8
0
  6
DASHED
 62
     4
 10
-20.333275
 20
61.833252
 11
-23.333273
 21
58.833252
  0
LINE
  8
0
  6
DASHED
 62
     4
 10
-45.333344
 20
58.833351
 11
-48.333336
 21
61.833344
  0
LINE
  8
0
  6
CENTER
 62
     1
 10
-23.333344
 20
68.475174
 11
-23.333344
 21
63.178711
  0
LINE
  8
0
  6
CENTER
 62
     1
 10
-45.333347
 20
68.540558
 11
-45.333347
 21
63.244095
  0
LINE
  8
0
  6
DASHED
 62
     4
 10
-39.833347
 20
72.833328
 11
-39.833347
 21
58.833328
  0
LINE
  8
0
  6
DASHED
 62
     4
 10
-28.833359
 20
72.833328
 11
-28.833359
 21
58.833328
  0
LINE
  8
0
 62
     4
 10
-39.333344
 20
55.833328
 11
-39.333344
 21
70.808594
  0
LINE
  8
0
  6
CENTER
 62
     1
 10
-37.633331
 20
73.633331
 11
-37.633331
 21
68.633331
  0
LINE
  8
0
  6
CENTER
 62
     1
 10
-31.033340
 20
63.033325
 11
-31.033340
 21
58.033325
  0
LINE
  8
0
  6
CENTER
 62
     1
 10
-35.133331
 20
71.133331
 11
-40.133331
 21
71.133331
  0
LINE
  8
0
  6
CENTER
 62
     1
 10
-28.533340
 20
60.533325
 11
-33.533340
 21
60.533325
  0
LINE
  8
0
  6
PHANTOM
 62
     1
 10
-31.433346
 20
47.856724
 11
-37.233349
 21
46.302620
  0
LINE
  8
0
  6
PHANTOM
 62
     1
 10
-31.433344
 20
48.892021
 11
-37.233345
 21
47.337917
  0
LINE
  8
0
 62
     4
 10
-34.333344
 20
57.911957
 11
-34.333344
 21
58.833328
  0
LINE
  8
0
 62
     4
 10
-37.083344
 20
52.233337
 11
-31.583344
 21
52.233337
  0
LINE
  8
0
 62
     4
 10
-37.083344
 20
52.233337
 11
-37.083344
 21
53.233337
  0
LINE
  8
0
 62
     4
 10
-31.583344
 20
52.233337
 11
-31.583344
 21
53.233337
  0
LINE
  8
0
 62
     4
 10
-37.633331
 20
69.333328
 11
-39.333344
 21
69.333328
  0
LINE
  8
0
 62
     4
 10
-35.833332
 20
71.133331
 11
-35.833332
 21
72.833328
  0
LINE
  8
0
 62
     4
 10
-39.333344
 20
58.833328
 11
-31.358154
 21
58.833328
  0
LINE
  8
0
  6
DASHED
 62
     4
 10
-39.333340
 20
72.833328
 11
-45.333363
 21
72.833344
  0
LINE
  8
0
  6
DASHED
 62
     4
 10
-29.333344
 20
72.833328
 11
-23.333359
 21
72.833328
  0
LINE
  8
0
 62
     4
 10
-29.333345
 20
62.333324
 11
-31.033340
 21
62.333324
  0
LINE
  8
0
 62
     4
 10
-32.833340
 20
58.833328
 11
-32.833340
 21
60.533325
  0
LINE
  8
0
  6
DASHED
 62
     4
 10
-29.333344
 20
58.833328
 11
-23.333344
 21
58.833328
  0
LINE
  8
0
 62
     4
 10
-37.308517
 20
72.833328
 11
-29.333344
 21
72.833328
  0
LINE
  8
0
 62
     4
 10
-39.333344
 20
71.458076
 11
-39.333344
 21
72.833328
  0
LINE
  8
0
 62
     4
 10
-29.333344
 20
60.858139
 11
-29.333344
 21
72.833328
  0
LINE
  8
0
 62
     4
 10
-30.708529
 20
58.833328
 11
-29.333344
 21
58.833328
  0
LINE
  8
0
  6
CENTER
 62
     1
 10
-47.949039
 20
65.833328
 11
-42.388393
 21
65.833328
  0
LINE
  8
0
  6
CENTER
 62
     1
 10
-26.348076
 20
65.833328
 11
-19.219055
 21
65.833328
  0
LINE
  8
0
 10
68.333313
 20
-3.166672
 11
68.333313
 21
-26.166672
  0
LINE
  8
0
 10
54.333313
 20
-3.166672
 11
54.333313
 21
-26.166672
  0
LINE
  8
0
 10
68.333313
 20
-23.166672
 11
54.333313
 21
-23.166672
  0
LINE
  8
0
  6
CENTER
 62
     2
 10
61.333313
 20
20.299210
 11
61.333313
 21
-33.716629
  0
LINE
  8
0
 10
53.411942
 20
-7.776062
 11
54.333313
 21
-7.776062
  0
LINE
  8
0
 10
53.233322
 20
-7.466678
 11
53.411949
 21
-7.776069
  0
LINE
  8
0
 10
53.233322
 20
-7.466675
 11
53.233322
 21
-3.466675
  0
LINE
  8
0
 10
53.411942
 20
-6.621368
 11
54.333313
 21
-6.621368
  0
LINE
  8
0
 10
53.411942
 20
-4.311966
 11
54.333313
 21
-4.311966
  0
LINE
  8
0
 10
53.233364
 20
-3.466694
 11
53.406567
 21
-3.166698
  0
LINE
  8
0
  6
CENTER
 62
     2
 10
54.733322
 20
-5.466675
 11
51.733322
 21
-5.466675
  0
LINE
  8
0
 10
53.233322
 20
-4.566666
 11
52.833313
 21
-4.566666
  0
LINE
  8
0
 10
52.833313
 20
-6.366669
 11
52.833313
 21
-4.566666
  0
LINE
  8
0
 10
53.233322
 20
-6.366669
 11
52.833313
 21
-6.366669
  0
LINE
  8
0
 10
55.333313
 20
-7.609894
 11
54.333313
 21
-7.609894
  0
LINE
  8
0
 10
55.333313
 20
-8.723450
 11
54.333313
 21
-8.723450
  0
LINE
  8
0
 10
55.333313
 20
-7.609894
 11
55.333313
 21
-8.723450
  0
LINE
  8
0
 10
68.333313
 20
-3.166672
 11
54.333313
 21
-3.166672
  0
LINE
  8
0
 62
     4
 10
54.333313
 20
16.833328
 11
54.333313
 21
-3.166672
  0
LINE
  8
0
 62
     4
 10
54.333313
 20
-0.166672
 11
54.333313
 21
-1.166672
  0
LINE
  8
0
 62
     4
 10
68.333313
 20
16.833328
 11
68.333313
 21
-3.166672
  0
LINE
  8
0
 62
     4
 10
57.499008
 20
17.333328
 11
67.833313
 21
17.333328
  0
LINE
  8
0
 62
     4
 10
68.333313
 20
16.333328
 11
54.333313
 21
16.333328
  0
LINE
  8
0
 62
     4
 10
51.232864
 20
-3.119812
 11
49.022011
 21
-2.088874
  0
LINE
  8
0
  6
CENTER
 62
     1
 10
49.407974
 20
11.833328
 11
34.978149
 21
11.833328
  0
LINE
  8
0
 62
     4
 10
47.733307
 20
12.483337
 11
44.081619
 21
12.483337
  0
LINE
  8
0
 62
     4
 10
47.733307
 20
11.183334
 11
44.429962
 21
11.183334
  0
LINE
  8
0
 62
     4
 10
48.733322
 20
14.833328
 11
48.733322
 21
-1.635742
  0
LINE
  8
0
 62
     4
 10
58.033310
 20
17.133331
 11
54.433304
 21
17.133331
  0
LINE
  8
0
 62
     4
 10
58.033310
 20
17.333328
 11
58.033310
 21
17.133331
  0
LINE
  8
0
 62
     4
 10
65.733322
 20
17.733337
 11
67.533310
 21
17.733337
  0
LINE
  8
0
 62
     4
 10
56.933319
 20
17.733337
 11
55.133316
 21
17.733337
  0
LINE
  8
0
 62
     4
 10
40.066116
 20
12.483337
 11
40.066116
 21
11.183334
  0
LINE
  8
0
 62
     4
 10
43.394684
 20
11.183334
 11
40.066132
 21
11.183334
  0
LINE
  8
0
 62
     4
 10
43.046356
 20
12.483337
 11
40.066132
 21
12.483337
  0
LINE
  8
0
 62
     4
 10
40.066132
 20
11.583328
 11
36.655609
 21
11.583328
  0
LINE
  8
0
 62
     4
 10
40.066132
 20
12.083328
 11
36.655609
 21
12.083328
  0
LINE
  8
0
 62
     4
 10
36.655609
 20
12.083328
 11
36.655609
 21
11.583328
  0
LINE
  8
0
 62
     4
 10
49.233322
 20
15.333328
 11
54.333313
 21
15.333328
  0
LINE
  8
0
 62
     4
 10
51.333313
 20
-3.154236
 11
51.333313
 21
15.333328
  0
LINE
  8
0
  6
PHANTOM
 62
     1
 10
44.831928
 20
9.683332
 11
43.679749
 21
13.983320
  0
LINE
  8
0
  6
PHANTOM
 62
     1
 10
43.796638
 20
9.683324
 11
42.644455
 21
13.983327
  0
LINE
  8
0
  6
CENTER
 62
     1
 10
56.033310
 20
18.426422
 11
56.033310
 21
15.985901
  0
LINE
  8
0
  6
CENTER
 62
     1
 10
66.633316
 20
18.397018
 11
66.633316
 21
15.985901
  0
LINE
  8
0
  6
DASHED
 62
     4
 10
68.333328
 20
-26.166672
 11
54.333313
 21
-26.166672
  0
LINE
  8
0
  6
CENTER
 62
     2
 10
66.733307
 20
-24.782806
 11
66.733307
 21
-26.807892
  0
LINE
  8
0
 10
64.933304
 20
-25.366669
 11
68.333313
 21
-25.366669
  0
LINE
  8
0
 10
64.933304
 20
-25.366669
 11
64.933304
 21
-26.166672
  0
LINE
  8
0
  6
DASHED
 62
     4
 10
68.333328
 20
-29.966675
 11
54.333313
 21
-29.966675
  0
LINE
  8
0
  6
DASHED
 62
     4
 10
68.333328
 20
-31.166672
 11
54.333313
 21
-31.166672
  0
LINE
  8
0
 10
66.133301
 20
-25.366669
 11
66.133301
 21
-26.166672
  0
LINE
  8
0
 10
67.333298
 20
-25.366669
 11
67.333298
 21
-26.166672
  0
LINE
  8
0
 10
67.733307
 20
-25.366669
 11
67.733307
 21
-26.166672
  0
LINE
  8
0
 10
65.733307
 20
-25.366669
 11
65.733307
 21
-26.166672
  0
LINE
  8
0
 62
     4
 10
47.733307
 20
10.333328
 11
48.733307
 21
10.333328
  0
LINE
  8
0
 62
     4
 10
47.733307
 20
13.333328
 11
48.733307
 21
13.333328
  0
LINE
  8
0
 62
     4
 10
47.733307
 20
13.333328
 11
47.733307
 21
10.333328
  0
LINE
  8
0
  6
DASHED
 62
     4
 10
68.333313
 20
-26.166672
 11
68.333313
 21
-31.166672
  0
LINE
  8
0
  6
DASHED
 62
     4
 10
54.333313
 20
-26.166672
 11
54.333313
 21
-31.166672
  0
LINE
  8
0
 10
54.333313
 20
-26.166672
 11
68.333328
 21
-26.166672
  0
LINE
  8
0
 62
     4
 10
54.333313
 20
-3.166672
 11
51.444168
 21
-3.166672
  0
LINE
  8
0
 62
     4
 10
-116.399994
 20
13.333328
 11
-116.399994
 21
10.333328
  0
LINE
  8
0
 62
     4
 10
-116.399994
 20
13.333328
 11
-117.399994
 21
13.333328
  0
LINE
  8
0
 62
     4
 10
-116.399994
 20
10.333328
 11
-117.399994
 21
10.333328
  0
LINE
  8
0
 10
-125.600006
 20
-25.366669
 11
-125.600006
 21
-26.166672
  0
LINE
  8
0
 10
-123.600006
 20
-25.366669
 11
-123.600006
 21
-26.166672
  0
LINE
  8
0
 10
-124.000015
 20
-25.366669
 11
-124.000015
 21
-26.166672
  0
LINE
  8
0
 10
-125.200012
 20
-25.366669
 11
-125.200012
 21
-26.166672
  0
LINE
  8
0
  6
DASHED
 62
     4
 10
-137.000015
 20
-31.166672
 11
-123.000000
 21
-31.166672
  0
LINE
  8
0
  6
DASHED
 62
     4
 10
-137.000015
 20
-29.966675
 11
-123.000000
 21
-29.966675
  0
LINE
  8
0
 10
-126.400009
 20
-25.366669
 11
-126.400009
 21
-26.166672
  0
LINE
  8
0
 10
-126.400009
 20
-25.366669
 11
-123.000000
 21
-25.366669
  0
LINE
  8
0
  6
CENTER
 62
     2
 10
-124.600006
 20
-24.782806
 11
-124.600006
 21
-26.807892
  0
LINE
  8
0
  6
DASHED
 62
     4
 10
-137.000015
 20
-26.166672
 11
-123.000000
 21
-26.166672
  0
LINE
  8
0
  6
CENTER
 62
     1
 10
-135.300003
 20
18.397018
 11
-135.300003
 21
15.985901
  0
LINE
  8
0
  6
CENTER
 62
     1
 10
-124.699997
 20
18.426422
 11
-124.699997
 21
15.985901
  0
LINE
  8
0
  6
PHANTOM
 62
     1
 10
-112.463326
 20
9.683323
 11
-111.311142
 21
13.983325
  0
LINE
  8
0
  6
PHANTOM
 62
     1
 10
-113.498619
 20
9.683334
 11
-112.346436
 21
13.983321
  0
LINE
  8
0
 62
     4
 10
-120.000000
 20
-3.154236
 11
-120.000000
 21
15.333328
  0
LINE
  8
0
 62
     4
 10
-117.900009
 20
15.333328
 11
-123.000000
 21
15.333328
  0
LINE
  8
0
 62
     4
 10
-105.322296
 20
12.083328
 11
-105.322296
 21
11.583328
  0
LINE
  8
0
 62
     4
 10
-108.732819
 20
12.083328
 11
-105.322296
 21
12.083328
  0
LINE
  8
0
 62
     4
 10
-108.732819
 20
11.583328
 11
-105.322296
 21
11.583328
  0
LINE
  8
0
 62
     4
 10
-111.713043
 20
12.483337
 11
-108.732819
 21
12.483337
  0
LINE
  8
0
 62
     4
 10
-112.061371
 20
11.183334
 11
-108.732819
 21
11.183334
  0
LINE
  8
0
 62
     4
 10
-108.732803
 20
12.483337
 11
-108.732803
 21
11.183334
  0
LINE
  8
0
 62
     4
 10
-125.600006
 20
17.733337
 11
-123.800003
 21
17.733337
  0
LINE
  8
0
 62
     4
 10
-134.400009
 20
17.733337
 11
-136.199997
 21
17.733337
  0
LINE
  8
0
 62
     4
 10
-133.300003
 20
17.333328
 11
-133.300003
 21
17.133331
  0
LINE
  8
0
 62
     4
 10
-133.300003
 20
17.133331
 11
-136.900009
 21
17.133331
  0
LINE
  8
0
 62
     4
 10
-117.400009
 20
14.833328
 11
-117.400009
 21
-1.635742
  0
LINE
  8
0
 62
     4
 10
-116.399994
 20
11.183334
 11
-113.096649
 21
11.183334
  0
LINE
  8
0
 62
     4
 10
-116.399994
 20
12.483337
 11
-112.748306
 21
12.483337
  0
LINE
  8
0
  6
CENTER
 62
     1
 10
-118.074661
 20
11.833328
 11
-103.644836
 21
11.833328
  0
LINE
  8
0
 62
     4
 10
-119.899551
 20
-3.119813
 11
-117.688698
 21
-2.088875
  0
LINE
  8
0
 62
     4
 10
-137.000000
 20
16.333328
 11
-123.000000
 21
16.333328
  0
LINE
  8
0
 62
     4
 10
-123.500000
 20
17.333328
 11
-133.834320
 21
17.333328
  0
LINE
  8
0
 62
     4
 10
-137.000000
 20
16.833328
 11
-137.000000
 21
-3.166672
  0
LINE
  8
0
 62
     4
 10
-123.000000
 20
-0.166672
 11
-123.000000
 21
-1.166672
  0
LINE
  8
0
 62
     4
 10
-123.000000
 20
16.833328
 11
-123.000000
 21
-3.166672
  0
LINE
  8
0
 10
-137.000000
 20
-3.166672
 11
-123.000000
 21
-3.166672
  0
LINE
  8
0
 10
-124.000000
 20
-7.609894
 11
-124.000000
 21
-8.723450
  0
LINE
  8
0
 10
-124.000000
 20
-8.723450
 11
-123.000000
 21
-8.723450
  0
LINE
  8
0
 10
-124.000000
 20
-7.609894
 11
-123.000000
 21
-7.609894
  0
LINE
  8
0
 10
-121.900009
 20
-6.366669
 11
-121.500000
 21
-6.366669
  0
LINE
  8
0
 10
-121.500000
 20
-6.366669
 11
-121.500000
 21
-4.566666
  0
LINE
  8
0
 10
-121.900009
 20
-4.566666
 11
-121.500000
 21
-4.566666
  0
LINE
  8
0
  6
CENTER
 62
     2
 10
-123.400009
 20
-5.466675
 11
-120.400009
 21
-5.466675
  0
LINE
  8
0
 62
     4
 10
-121.900047
 20
-3.466693
 11
-122.073250
 21
-3.166698
  0
LINE
  8
0
 10
-122.078629
 20
-4.311966
 11
-123.000000
 21
-4.311966
  0
LINE
  8
0
 10
-122.078629
 20
-6.621368
 11
-123.000000
 21
-6.621368
  0
LINE
  8
0
 10
-121.900009
 20
-7.466675
 11
-121.900009
 21
-3.466675
  0
LINE
  8
0
 10
-121.900009
 20
-7.466680
 11
-122.078636
 21
-7.776071
  0
LINE
  8
0
 10
-122.078629
 20
-7.776062
 11
-123.000000
 21
-7.776062
  0
LINE
  8
0
  6
CENTER
 62
     2
 10
-130.000000
 20
20.299210
 11
-130.000000
 21
-33.716629
  0
LINE
  8
0
 10
-137.000000
 20
-23.166672
 11
-123.000000
 21
-23.166672
  0
LINE
  8
0
 10
-123.000000
 20
-3.166672
 11
-123.000000
 21
-26.166672
  0
LINE
  8
0
 10
-137.000000
 20
-3.166672
 11
-137.000000
 21
-26.166672
  0
LINE
  8
0
 62
     4
 10
-123.000000
 20
-3.166672
 11
-120.110855
 21
-3.166672
  0
LINE
  8
0
  6
DASHED
 62
     4
 10
-137.000000
 20
-26.166672
 11
-137.000000
 21
-31.166672
  0
LINE
  8
0
  6
DASHED
 62
     4
 10
-123.000000
 20
-26.166672
 11
-123.000000
 21
-31.166672
  0
LINE
  8
0
 10
-137.000000
 20
-26.166672
 11
-123.000000
 21
-26.166672
  0
LINE
  8
0
 62
     4
 10
-35.583344
 20
13.333328
 11
-33.083344
 21
13.333328
  0
LINE
  8
0
 62
     4
 10
-35.583344
 20
10.333328
 11
-33.083344
 21
10.333328
  0
LINE
  8
0
  6
CENTER
 62
     1
 10
-31.033340
 20
-24.835510
 11
-31.033340
 21
-29.253983
  0
LINE
  8
0
 10
-37.033340
 20
-25.366669
 11
-37.033340
 21
-26.166672
  0
LINE
  8
0
 10
-38.233337
 20
-25.366669
 11
-38.233337
 21
-26.166672
  0
LINE
  8
0
 10
-38.633347
 20
-25.366669
 11
-38.633347
 21
-26.166672
  0
LINE
  8
0
 10
-36.633347
 20
-25.366669
 11
-36.633347
 21
-26.166672
  0
LINE
  8
0
  6
DASHED
 62
     4
 10
-48.333344
 20
-31.166687
 11
-48.333344
 21
-29.966675
  0
LINE
  8
0
  6
DASHED
 62
     4
 10
-29.302567
 20
-28.337540
 11
-29.302567
 21
-27.366669
  0
LINE
  8
0
  6
DASHED
 62
     4
 10
-32.764114
 20
-28.337540
 11
-32.764114
 21
-27.366669
  0
LINE
  8
0
  6
DASHED
 62
     4
 10
-35.902573
 20
-28.337540
 11
-35.902573
 21
-27.366669
  0
LINE
  8
0
  6
DASHED
 62
     4
 10
-39.364120
 20
-28.337540
 11
-39.364120
 21
-27.366684
  0
LINE
  8
0
  6
CENTER
 62
     1
 10
-23.333328
 20
-32.424026
 11
-23.333328
 21
-29.271210
  0
LINE
  8
0
  6
CENTER
 62
     1
 10
-45.333344
 20
-32.045700
 11
-45.333344
 21
-29.145111
  0
LINE
  8
0
  6
DASHED
 62
     4
 10
-27.433334
 20
-31.166672
 11
-20.333328
 21
-31.166672
  0
LINE
  8
0
  6
DASHED
 62
     4
 10
-27.433334
 20
-29.966675
 11
-20.333328
 21
-29.966675
  0
LINE
  8
0
  6
DASHED
 62
     4
 10
-48.333344
 20
-29.966675
 11
-41.233337
 21
-29.966675
  0
LINE
  8
0
  6
DASHED
 62
     4
 10
-48.333344
 20
-31.166672
 11
-41.233337
 21
-31.166672
  0
LINE
  8
0
  6
DASHED
 62
     4
 10
-41.033340
 20
-29.766678
 11
-41.033340
 21
-27.566681
  0
LINE
  8
0
  6
DASHED
 62
     4
 10
-27.633347
 20
-29.766678
 11
-27.633347
 21
-27.566666
  0
LINE
  8
0
  6
DASHED
 62
     4
 10
-20.333328
 20
-31.166672
 11
-20.333328
 21
-29.966675
  0
LINE
  8
0
  6
DASHED
 62
     4
 10
-28.833344
 20
-29.766678
 11
-28.833344
 21
-27.566666
  0
LINE
  8
0
  6
DASHED
 62
     4
 10
-39.833344
 20
-29.766678
 11
-39.833344
 21
-27.566681
  0
LINE
  8
0
  6
DASHED
 62
     4
 10
-39.633347
 20
-27.366669
 11
-29.033340
 21
-27.366669
  0
LINE
  8
0
 10
-35.833344
 20
-25.366669
 11
-35.833344
 21
-26.166672
  0
LINE
  8
0
 10
-39.333344
 20
-25.366669
 11
-35.833344
 21
-25.366669
  0
LINE
  8
0
  6
CENTER
 62
     1
 10
-37.633347
 20
-24.835510
 11
-37.633347
 21
-29.253983
  0
LINE
  8
0
  6
CENTER
 62
     1
 10
-31.029373
 20
18.483994
 11
-31.029373
 21
15.963623
  0
LINE
  8
0
  6
CENTER
 62
     1
 10
-37.637299
 20
18.483994
 11
-37.637299
 21
15.849060
  0
LINE
  8
0
 62
     4
 10
-36.737305
 20
17.733337
 11
-38.537308
 21
17.733337
  0
LINE
  8
0
 62
     4
 10
-33.029373
 20
17.333328
 11
-33.029373
 21
17.133331
  0
LINE
  8
0
 62
     4
 10
-33.029373
 20
17.133331
 11
-29.429382
 21
17.133331
  0
LINE
  8
0
 62
     4
 10
-31.929382
 20
17.733337
 11
-30.129379
 21
17.733337
  0
LINE
  8
0
 62
     4
 10
-38.603348
 20
-1.954269
 11
-30.063339
 21
-1.954269
  0
LINE
  8
0
 62
     4
 10
-39.103348
 20
14.833328
 11
-39.103348
 21
-1.454269
  0
LINE
  8
0
 62
     4
 10
-29.563339
 20
14.833328
 11
-29.563339
 21
-1.454269
  0
LINE
  8
0
 62
     4
 10
-38.833344
 20
15.333328
 11
-29.833344
 21
15.333328
  0
LINE
  8
0
 62
     4
 10
-38.833344
 20
17.333328
 11
-32.495071
 21
17.333328
  0
LINE
  8
0
 62
     4
 10
-39.333344
 20
16.333328
 11
-29.333344
 21
16.333328
  0
LINE
  8
0
 62
     4
 10
-39.333344
 20
16.833328
 11
-39.333344
 21
-3.166672
  0
LINE
  8
0
 62
     4
 10
-29.333344
 20
16.833328
 11
-29.333344
 21
-3.166672
  0
LINE
  8
0
 10
-39.333344
 20
-3.166672
 11
-29.333344
 21
-3.166672
  0
LINE
  8
0
  6
CENTER
 62
     2
 10
-36.833344
 20
-19.666672
 11
-31.833344
 21
-19.666672
  0
LINE
  8
0
  6
CENTER
 62
     2
 10
-30.833344
 20
-6.166672
 11
-30.833344
 21
-11.166672
  0
LINE
  8
0
  6
CENTER
 62
     2
 10
-37.833344
 20
-6.166672
 11
-37.833344
 21
-11.166672
  0
LINE
  8
0
  6
CENTER
 62
     2
 10
-36.833344
 20
-10.766678
 11
-31.833344
 21
-10.766678
  0
LINE
  8
0
  6
CENTER
 62
     2
 10
-33.333344
 20
-8.166672
 11
-28.333344
 21
-8.166672
  0
LINE
  8
0
  6
CENTER
 62
     2
 10
-40.333344
 20
-8.166672
 11
-35.333344
 21
-8.166672
  0
LINE
  8
0
  6
CENTER
 62
     2
 10
-34.333344
 20
19.549850
 11
-34.333344
 21
-28.224503
  0
LINE
  8
0
  6
CENTER
 62
     2
 10
-37.333344
 20
-5.466675
 11
-31.333344
 21
-5.466675
  0
LINE
  8
0
 10
-36.333271
 20
-6.621240
 11
-34.333271
 21
-7.775941
  0
LINE
  8
0
 10
-34.333328
 20
-3.157177
 11
-32.333328
 21
-4.311877
  0
LINE
  8
0
 10
-34.333302
 20
-7.776119
 11
-32.333313
 21
-6.621426
  0
LINE
  8
0
 10
-36.333286
 20
-4.311977
 11
-34.333302
 21
-3.157283
  0
LINE
  8
0
 10
-32.333344
 20
-4.311966
 11
-32.333344
 21
-6.621368
  0
LINE
  8
0
 10
-36.333344
 20
-4.311966
 11
-36.333344
 21
-6.621368
  0
LINE
  8
0
 10
-39.333344
 20
-23.166672
 11
-29.333344
 21
-23.166672
  0
LINE
  8
0
 10
-39.333344
 20
-3.166672
 11
-39.333344
 21
-26.166672
  0
LINE
  8
0
 10
-29.333344
 20
-3.166672
 11
-29.333344
 21
-26.166672
  0
LINE
  8
0
  6
DASHED
 62
     4
 10
-39.633347
 20
-26.166672
 11
-29.026806
 21
-26.166672
  0
LINE
  8
0
 10
-39.333344
 20
-26.166672
 11
-29.333344
 21
-26.166672
  0
LINE
  8
0
 10
-38.540451
 20
-7.459565
 11
-37.126236
 21
-8.873779
  0
LINE
  8
0
 10
-37.126236
 20
-7.459565
 11
-38.540451
 21
-8.873780
  0
LINE
  8
0
 10
-31.540451
 20
-7.459565
 11
-30.126238
 21
-8.873778
  0
LINE
  8
0
 10
-30.126238
 20
-7.459564
 11
-31.540451
 21
-8.873778
  0
LINE
  8
0
 10
-109.250000
 20
132.600006
 11
-109.250000
 21
117.600006
  0
LINE
  8
0
 10
-194.250000
 20
117.600006
 11
-109.250000
 21
117.600006
  0
LINE
  8
0
 10
109.800003
 20
117.600006
 11
194.800003
 21
117.600006
  0
LINE
  8
0
 10
109.800003
 20
132.600006
 11
109.800003
 21
117.600006
  0
LINE
  8
0
 10
109.800003
 20
-118.500000
 11
194.800003
 21
-118.500000
  0
LINE
  8
0
 10
109.800003
 20
-118.500000
 11
109.800003
 21
-133.500000
  0
LINE
  8
0
 10
-194.250000
 20
-133.500000
 11
194.800003
 21
-133.500000
  0
LINE
  8
0
 10
-194.250000
 20
132.600006
 11
-194.250000
 21
-133.500000
  0
LINE
  8
0
 10
194.800003
 20
132.600006
 11
194.800003
 21
-133.500000
  0
LINE
  8
0
 10
-194.250000
 20
132.600006
 11
194.800003
 21
132.600006
  0
CIRCLE
  8
0
 10
126.999969
 20
-8.166672
 40
1.049999
  0
CIRCLE
  8
0
 10
119.999969
 20
-8.166672
 40
1.049999
  0
CIRCLE
  8
0
 10
121.499969
 20
-11.466675
 40
0.600000
  0
CIRCLE
  8
0
 10
121.499969
 20
-16.166672
 40
0.600000
  0
CIRCLE
  8
0
 62
     2
 10
122.999969
 20
-6.666672
 40
1.500000
  0
CIRCLE
  8
0
 10
122.999969
 20
-6.666672
 40
1.229500
  0
ARC
  8
0
 62
     4
 10
127.999969
 20
16.833328
 40
0.500000
 50
0.000000
 51
90.000000
  0
ARC
  8
0
 62
     4
 10
118.999969
 20
16.833328
 40
0.499997
 50
126.146156
 51
180.000000
  0
ARC
  8
0
 62
     4
 10
119.296005
 20
17.133331
 40
0.600000
 50
90.000000
 51
180.000000
  0
ARC
  8
0
 62
     4
 10
121.096008
 20
17.133331
 40
0.599998
 50
0.000000
 51
90.000000
  0
ARC
  8
0
 62
     4
 10
125.903931
 20
17.133331
 40
0.600000
 50
90.000000
 51
160.528824
  0
ARC
  8
0
 62
     4
 10
127.703934
 20
17.133331
 40
0.599997
 50
9.958074
 51
90.000000
  0
ARC
  8
0
  6
DASHED
 62
     4
 10
120.199982
 20
-24.058975
 40
4.615385
 50
247.975616
 51
292.024170
  0
ARC
  8
0
  6
DASHED
 62
     4
 10
130.399979
 20
-29.766678
 40
0.199997
 50
180.000000
 51
270.000000
  0
ARC
  8
0
  6
DASHED
 62
     4
 10
116.599976
 20
-29.766663
 40
0.200001
 50
270.000000
 51
0.000000
  0
ARC
  8
0
 62
     4
 10
118.199982
 20
-27.566666
 40
0.200001
 50
90.000000
 51
180.000000
  0
ARC
  8
0
  6
DASHED
 62
     4
 10
128.799973
 20
-27.566681
 40
0.199997
 50
0.000000
 51
90.000000
  0
ARC
  8
0
  6
DASHED
 62
     4
 10
118.199982
 20
-27.566666
 40
1.400000
 50
90.000000
 51
179.999924
  0
ARC
  8
0
  6
DASHED
 62
     4
 10
116.599976
 20
-29.766663
 40
1.400000
 50
270.000000
 51
0.000000
  0
ARC
  8
0
  6
DASHED
 62
     4
 10
130.399979
 20
-29.766678
 40
1.399994
 50
179.999924
 51
270.000000
  0
ARC
  8
0
  6
DASHED
 62
     4
 10
126.799973
 20
-24.058975
 40
4.615385
 50
247.975616
 51
292.024384
  0
ARC
  8
0
  6
DASHED
 62
     4
 10
128.799988
 20
-27.566666
 40
1.399994
 50
0.000000
 51
90.000000
  0
ARC
  8
0
 62
     4
 10
-31.783340
 20
-63.766678
 40
0.200001
 50
0.000000
 51
90.000000
  0
ARC
  8
0
 62
     4
 10
-36.883343
 20
-63.766678
 40
0.200001
 50
90.000000
 51
180.000000
  0
CIRCLE
  8
0
 10
-31.033356
 20
-82.466675
 40
1.730749
  0
CIRCLE
  8
0
 10
-37.633347
 20
-71.866669
 40
1.730749
  0
ARC
  8
0
 62
     4
 10
-30.018982
 20
-65.066681
 40
0.500001
 50
5.000130
 51
90.000000
  0
ARC
  8
0
 62
     4
 10
-38.647705
 20
-65.066681
 40
0.500000
 50
90.000000
 51
174.999847
  0
ARC
  8
0
 10
-31.033356
 20
-82.466675
 40
1.800003
 50
90.000000
 51
180.000000
  0
ARC
  8
0
 10
-37.633347
 20
-71.866669
 40
1.800003
 50
270.000000
 51
0.000000
  0
ARC
  8
0
 62
     4
 10
-38.647705
 20
53.733337
 40
0.499999
 50
185.000153
 51
270.000000
  0
ARC
  8
0
 62
     4
 10
-30.018982
 20
53.733337
 40
0.500000
 50
270.000000
 51
355.000305
  0
CIRCLE
  8
0
  6
DASHED
 62
     4
 10
-45.333347
 20
65.833328
 40
1.750000
  0
CIRCLE
  8
0
  6
DASHED
 62
     4
 10
-23.333344
 20
65.833328
 40
1.750000
  0
CIRCLE
  8
0
 62
     4
 10
-31.033340
 20
60.533325
 40
1.730749
  0
CIRCLE
  8
0
 62
     4
 10
-37.633331
 20
71.133331
 40
1.730749
  0
ARC
  8
0
 62
     4
 10
-37.633331
 20
71.133331
 40
1.800003
 50
270.000000
 51
0.000000
  0
ARC
  8
0
 62
     4
 10
-31.033340
 20
60.533325
 40
1.799999
 50
90.000000
 51
180.000000
  0
ARC
  8
0
 10
54.255646
 20
-7.198715
 40
1.022329
 50
145.615784
 51
205.615753
  0
ARC
  8
0
 10
57.054687
 20
-5.466675
 40
3.821371
 50
162.412064
 51
197.587906
  0
ARC
  8
0
 10
54.255646
 20
-3.734619
 40
1.022329
 50
154.384262
 51
214.384216
  0
ARC
  8
0
 62
     4
 10
56.933319
 20
17.133331
 40
0.599998
 50
0.000000
 51
90.000000
  0
ARC
  8
0
 62
     4
 10
51.444168
 20
-2.666672
 40
0.499999
 50
245.000168
 51
270.000000
  0
ARC
  8
0
 62
     4
 10
54.833313
 20
16.833328
 40
0.500000
 50
125.502769
 51
180.000000
  0
ARC
  8
0
 62
     4
 10
67.833313
 20
16.833328
 40
0.500000
 50
0.000000
 51
90.000000
  0
ARC
  8
0
 62
     4
 10
49.233322
 20
-1.635742
 40
0.500000
 50
180.000046
 51
245.000183
  0
ARC
  8
0
 62
     4
 10
49.233322
 20
14.833328
 40
0.500000
 50
90.000000
 51
180.000000
  0
ARC
  8
0
 62
     4
 10
67.533310
 20
17.133331
 40
0.600003
 50
10.276566
 51
90.000000
  0
ARC
  8
0
 62
     4
 10
65.733322
 20
17.133331
 40
0.600000
 50
90.000000
 51
160.529175
  0
ARC
  8
0
 62
     4
 10
55.133316
 20
17.133331
 40
0.600000
 50
90.000000
 51
180.000000
  0
ARC
  8
0
 62
     4
 10
-123.800003
 20
17.133331
 40
0.600003
 50
10.276566
 51
90.000000
  0
ARC
  8
0
 62
     4
 10
-134.400009
 20
17.133331
 40
0.600006
 50
0.000000
 51
90.000000
  0
ARC
  8
0
 62
     4
 10
-136.199997
 20
17.133331
 40
0.600000
 50
90.000000
 51
180.000000
  0
ARC
  8
0
 62
     4
 10
-117.900009
 20
14.833328
 40
0.500000
 50
0.000000
 51
90.000000
  0
ARC
  8
0
 62
     4
 10
-117.900009
 20
-1.635742
 40
0.500001
 50
295.000244
 51
0.000000
  0
ARC
  8
0
 62
     4
 10
-136.500000
 20
16.833328
 40
0.500000
 50
125.503250
 51
180.000000
  0
ARC
  8
0
 62
     4
 10
-123.500000
 20
16.833328
 40
0.500000
 50
0.000000
 51
90.000000
  0
ARC
  8
0
 62
     4
 10
-120.110855
 20
-2.666672
 40
0.500000
 50
270.000000
 51
295.000244
  0
ARC
  8
0
 62
     4
 10
-125.600006
 20
17.133331
 40
0.600000
 50
90.000000
 51
160.528824
  0
ARC
  8
0
 10
-122.922333
 20
-3.734619
 40
1.022329
 50
325.615753
 51
25.615816
  0
ARC
  8
0
 10
-125.721375
 20
-5.466675
 40
3.821371
 50
342.412079
 51
17.587898
  0
ARC
  8
0
 10
-122.922333
 20
-7.198715
 40
1.022326
 50
334.384125
 51
34.384190
  0
CIRCLE
  8
0
 62
     4
 10
-35.583344
 20
11.833328
 40
0.650000
  0
CIRCLE
  8
0
 62
     4
 10
-33.083344
 20
11.833328
 40
0.650000
  0
ARC
  8
0
 62
     4
 10
-33.083344
 20
11.833328
 40
1.500000
 50
270.000000
 51
90.000000
  0
ARC
  8
0
 62
     4
 10
-35.583344
 20
11.833328
 40
1.500000
 50
90.000000
 51
270.000000
  0
ARC
  8
0
  6
DASHED
 62
     4
 10
-37.633347
 20
-24.058975
 40
4.615383
 50
247.975662
 51
292.024414
  0
ARC
  8
0
  6
DASHED
 62
     4
 10
-41.233353
 20
-29.766678
 40
1.400000
 50
270.000000
 51
0.000078
  0
ARC
  8
0
  6
DASHED
 62
     4
 10
-27.433334
 20
-29.766663
 40
1.400000
 50
180.000000
 51
270.000000
  0
ARC
  8
0
  6
DASHED
 62
     4
 10
-29.033340
 20
-27.566666
 40
1.400000
 50
0.000078
 51
90.000000
  0
ARC
  8
0
  6
DASHED
 62
     4
 10
-39.633347
 20
-27.566681
 40
1.400000
 50
90.000000
 51
180.000000
  0
ARC
  8
0
  6
DASHED
 62
     4
 10
-39.633347
 20
-27.566681
 40
0.200001
 50
90.000000
 51
180.000000
  0
ARC
  8
0
  6
DASHED
 62
     4
 10
-29.033340
 20
-27.566666
 40
0.200001
 50
0.000000
 51
90.000000
  0
ARC
  8
0
  6
DASHED
 62
     4
 10
-27.433334
 20
-29.766663
 40
0.200001
 50
180.000000
 51
270.000000
  0
ARC
  8
0
  6
DASHED
 62
     4
 10
-41.233353
 20
-29.766678
 40
0.200001
 50
270.000000
 51
0.000000
  0
ARC
  8
0
  6
DASHED
 62
     4
 10
-31.033340
 20
-24.058975
 40
4.615383
 50
247.975662
 51
292.024414
  0
ARC
  8
0
 62
     4
 10
-38.537308
 20
17.133331
 40
0.600000
 50
90.000000
 51
170.041992
  0
ARC
  8
0
 62
     4
 10
-36.737305
 20
17.133331
 40
0.600000
 50
19.471294
 51
90.000000
  0
ARC
  8
0
 62
     4
 10
-31.929382
 20
17.133331
 40
0.600000
 50
90.000000
 51
180.000000
  0
ARC
  8
0
 62
     4
 10
-30.129379
 20
17.133331
 40
0.600000
 50
0.000000
 51
90.000000
  0
ARC
  8
0
 62
     4
 10
-29.833344
 20
14.833328
 40
0.500000
 50
0.000000
 51
90.000000
  0
ARC
  8
0
 62
     4
 10
-38.833344
 20
14.833328
 40
0.500000
 50
90.000000
 51
180.000000
  0
ARC
  8
0
 62
     4
 10
-38.603348
 20
14.833328
 40
0.500000
 50
90.000000
 51
180.000000
  0
ARC
  8
0
 62
     4
 10
-30.063339
 20
14.833328
 40
0.500000
 50
0.000000
 51
90.000000
  0
ARC
  8
0
 62
     4
 10
-30.063339
 20
-1.454269
 40
0.500000
 50
270.000000
 51
0.000000
  0
ARC
  8
0
 62
     4
 10
-38.603348
 20
-1.454269
 40
0.500000
 50
179.999954
 51
270.000000
  0
ARC
  8
0
 62
     4
 10
-29.833344
 20
16.833328
 40
0.500000
 50
0.000000
 51
53.853489
  0
ARC
  8
0
 62
     4
 10
-38.833344
 20
16.833328
 40
0.500000
 50
90.000000
 51
180.000000
  0
CIRCLE
  8
0
 10
-34.333344
 20
-19.666672
 40
1.229500
  0
CIRCLE
  8
0
 62
     2
 10
-34.333344
 20
-19.666672
 40
1.500000
  0
CIRCLE
  8
0
 10
-34.333344
 20
-5.466675
 40
0.900000
  0
CIRCLE
  8
0
 10
-34.333344
 20
-5.466675
 40
2.000000
  0
CIRCLE
  8
0
 10
-34.333344
 20
-10.766678
 40
1.229500
  0
CIRCLE
  8
0
 62
     2
 10
-34.333344
 20
-10.766678
 40
1.500000
  0
CIRCLE
  8
0
 10
-37.833344
 20
-8.166672
 40
1.500000
  0
ARC
  8
0
 10
-37.833344
 20
-8.166672
 40
1.600000
 50
200.364090
 51
159.635849
  0
ARC
  8
0
 10
-30.833344
 20
-8.166672
 40
1.600000
 50
20.364153
 51
339.635925
  0
CIRCLE
  8
0
 10
-30.833344
 20
-8.166672
 40
1.500000
  0
TEXT
  8
0
 10
-186.892654
 20
104.550003
 40
4.500000
  1
MODEL:010-4E1-21
 50
0.000000
 41
1.052632
 51
0.000000
  7
STANDARD
  0
TEXT
  8
0
 10
-174.642654
 20
122.050003
 40
4.500000
  1
010 SERIES
 50
0.000000
 41
1.052632
 51
0.000000
  7
STANDARD
  0
TEXT
  8
0
 10
113.700287
 20
-130.669998
 40
6.300000
  1
KOGANEI CORP.
 50
0.000000
 41
1.052632
 51
0.000000
  7
STANDARD
  0
TEXT
  8
0
 10
133.907150
 20
122.050003
 40
4.500000
  1
Ver. 2.0
 50
0.000000
 41
1.052632
 51
0.000000
  7
STANDARD
  0
ENDSEC
  0
EOF
